Oops, an error
Loading. Please wait.

A Day Without Me Tab

version 1
version 1

Whole song

Interactive

by U2
6,829 views 9 this week
no commentswrite comment
1 2 3 4 5
2 more votes to show rating
add to favorites
launch autoscroll
font size
0
reset
how to read this tab
guitar tuner
Autoscroll
slow
fast
+/-
esc
set tempo
stop
Help us to improve Ultimate-Guitar.com Take our survey!
×
Author
-----------------------------------------------------------------------------
                           A Day Without Me – U2
-----------------------------------------------------------------------------
Tabbed by: olive14
Email: olive14@u2.com

Tuning: EbAbDbGbBbeb

There are about 3 guitars. I will try to make a mix of the 3…

Intro
e|---10-----10-----10---0-3------8-10-17-X----------14-8-X-----------10-X-X-|
B|-6----8-8----8-6----8-1-1----8---------X-12-10h12----8-X-10-8h10---10-X-X-|
G|-5------8------7------0-0-(9)----------X-------------9-X--------7/-11-X-X-|
D|-3------8------7------2-2-10------------------------10-X-----------12-X-X-|
A|--------6------5------3-3---------------------------10-X-----------12-X-X-|
E|-----------------------------------------------------8-------------10-X-X-|

e|----------15-14-------------6---------------------------------------------|
B|-12-10h12--------and so on -6---------------------------------------------|
G|----------------------------7---------------------------------------------|
D|------------------there is--8---------------------------------------------|
A|------------------a Ab too--8---------------------------------------------|
E|----------------------------6---------------------------------------------|

One guitar is just doing 2 notes of each chords :
A|----12----12----12----12---10---10---10---10-Then---for the Ab |
E|-10----10----10----10----8----8----8----8---------6------------|

Solo
e|---------------------0---3-0-2----------------------0---3-0-2-------------|
B|-----3-------3-----------------3----3-------3-----------------3/----------|
G|--------------------------------------------------------------------------|
D|-2-0---0-2-0---0-4-2---2--------2-0---0-2-0---0-4-2---2-------------------|
A|--------------------------------------------------------------------------|
E|--------------------------------------------------------------------------|

e|-15-14-----------------------------15-14-------17-19-20-------------------|
B|-------15-17-12--------------------------15/17----------------------------|
G|----------------14-11-----------------------------------------------------|
D|----------------------14-12----12\----------------------------------------|
A|----------------------------14--------------------------------------------|
E|--------------------------------------------------------------------------|

That’s all…

Hoping this will help.

Sorry for my bad English…

The best page to get Edge’s sound :
http://www.amnesta.net/edge_delay/  Good luck with it !!!

| b  bend
| h  hold bend
| r  release bend
| /  slide up
| \  slide down
| h  hammer-on
| p  pull-off
| ~  vibrato
| +  harmonic
| x  Mute note
=============================================================================
Suggest correction
Give kudos to tab author, rate the tab!
1 2 3 4 5
comments
print report bad tab
guest
You may want to rate the tab now too:
select rating
Wanna post a correction for this tab? Suggest correction