Oops, an error
Loading. Please wait.

A Room At The Heartbreak Hotel Tab

by U2
1,094 views 1 this week
no commentswrite comment
1 2 3 4 5
please rate
add to favorites
launch autoscroll
font size
0
reset
how to read this tab
guitar tuner
Autoscroll
slow
fast
+/-
esc
set tempo
stop
Help us to improve Ultimate-Guitar.com Take our survey!
×
Author
-----------------------------------------------------------------------------
                        A Room At The Heartbreak Hotel – U2
-----------------------------------------------------------------------------
Tabbed by:
Email:

Tuning: EbAbDbGbBbeb

Intro
e|--------10----10----------------------------------------------------------|
B|-10b12h----12----12r10-10-8p5---5-----------------------------------------|
G|------------------------------7-------------------------------------------|
D|--------------------------------------------------------------------------|
A|--------------------------------------------------------------------------|
E|--------------------------------------------------------------------------|

Verse Eb - Ab
e|-0-0-0-0-0-0-0-0-0-0-0-0--------------------------------------------------|
B|-0-0-0-0-0-0-2-2-3-2-2-0--------------------------------------------------|
G|-1-1-1-1-1-0-2-2-2-2-2-0--------------------------------------------------|
D|-2-2-2-2-2-0-2-2-2-2-2-0--------------------------------------------------|
A|-2-2-2-2-2-0-0-0-0-0-0-0--------------------------------------------------|
E|-0-0-0-0-0-0-0-0-0-0-0-0--------------------------------------------------|

Chorus Eb – Ab – Eb – Ab – Bb - Ab
e|-0-0-0-0-2-0|
B|-0-2-0-2-4-2|
G|-1-2-1-2-4-2|
D|-2-2-2-2-4-2|
A|-2-0-2-0-2-0|
E|-0-0-0-0---0|

2nd guitar on Chorus 
e|--------------------------------------------------------------------------|
B|-12-10-9-12-10-9-10-12-14-12-10-14-12-10-12-10-9-12-10-9-10-12-14-12-10-14|
G|--------------------------------------------------------------------------|
D|--------------------------------------------------------------------------|
A|--------------------------------------------------------------------------|
E|--------------------------------------------------------------------------|

e|--------------------------------------------------------------------------|
B|-12-10-4-5-7-4-5-7-5------------------------------------------------------|
G|--------------------------------------------------------------------------|
D|--------------------------------------------------------------------------|
A|--------------------------------------------------------------------------|
E|--------------------------------------------------------------------------|

Some fills at the end but I’m too lazy to tab them !!!

Sorry for my bad English…

The best page to get Edge’s sound :
http://www.amnesta.net/edge_delay/  Good luck with it !!!

| b  bend
| h  hold bend
| r  release bend
| /  slide up
| \  slide down
| h  hammer-on
| p  pull-off
| ~  vibrato
| +  harmonic
| x  Mute note
=============================================================================
Suggest correction
Give kudos to tab author, rate the tab!
1 2 3 4 5
comments
print report bad tab
guest
You may want to rate the tab now too:
select rating
Wanna post a correction for this tab? Suggest correction