Oops, an error
Loading. Please wait.

All I Want Is You Tab

version 1
version 1

Live

Whole song

Interactive

by U2
16,401 views 33 this week
1 commentread comment
1 2 3 4 5
x 16
add to favorites
launch autoscroll
font size
0
reset
how to read this tab
guitar tuner
Autoscroll
slow
fast
+/-
esc
set tempo
stop
Help us to improve Ultimate-Guitar.com Take our survey!
×
Difficulty
Tuning
intermediate
D# G# C# F# A# D#
Tuning: 1/2 Step Down

[Intro]
eb|-----------------------|
Bb|----2--2-------3--3----|
Gb|---2--2--2----2--2--2--|(8x)
Db|------------0----------|
Ab|-0---------------------|
Eb|-----------------------|

[Chorus]
eb|-----2-----------2-------|
Bb|----2--2--------3--3-----|
Gb|---2----2------2----2----|(2x)
Db|-------------0-----------|
Ab|-0-----------------------|
Eb|-------------------------|

[Interlude 1]
eb|-----------------0-----|
Bb|----2--2-------3--3----|
Gb|---2--2--2----2-----2--|
Db|------------0----------|
Ab|-0---------------------|
Eb|-----------------------|

[Interlude 2]
eb|-0-0-0-0--0-0-0--2-2-0-0-2--|
Bb|-2-2-0-2--0-2-0—-3-3-3-3-3--|
Gb|-2-2-2-2--2-2-2--2-2-2-2-2--|(2x)
Db|-2-2-2-2--2-2-2--0-0-0-0-0--|
Ab|-0-0-0-0--0-0-0-------------|
Eb|----------------------------|

[Verse]
eb|-----------------------|
Bb|----2--2-------3--3----|
Gb|---2--2--2----2--2--2--|(4x)
Db|------------0----------|
Ab|-0---------------------|
Eb|-----------------------|

eb|---5--5-------5--5-----|
Bb|----5--5—------5--5----|
Gb|-----------------------|(4x)
Db|------------0----------|
Ab|-0---------------------|
Eb|-----------------------|

[Chorus]
eb|-----2-----------2-------|
Bb|----2--2--------3--3-----|
Gb|---2----2------2----2----|(2x)
Db|-------------0-----------|
Ab|-0-----------------------|
Eb|-------------------------|

[Interlude 1]
eb|-----------------0-----|
Bb|----2--2-------3--3----|
Gb|---2--2--2----2-----2--|
Db|------------0----------|
Ab|-0---------------------|
Eb|-----------------------|

[Interlude 2]
eb|-0-0-0-0--0-0-0--2-2-0-0-2--|
Bb|-2-2-0-2--0-2-0—-3-3-3-3-3--|
Gb|-2-2-2-2--2-2-2--2-2-2-2-2--|(2x)
Db|-2-2-2-2--2-2-2--0-0-0-0-0--|
Ab|-0-0-0-0--0-0-0-------------|
Eb|----------------------------|

[Interlude 3]
eb|-----------2---2--|
Bb|-2----2----3---3--|
Gb|-2----2----2---2--|(2x)
Db|-2----2----0---0--|
Ab|-0----0-----------|
Eb|------------------|

[Verse]
eb|---------------------------------------------|
Bb|-8-8--8----7----7----------------------------|
Gb|--9-9--9------9--9-9---9-9-9---9-9-9---------|(2x)
Db|---------------0--0-----------0---0-0--------|
Ab|-----0----------------0---0-0----------------|
Eb|---------------------------------------------|

[Chorus]
eb|-----2-----------2-------|
Bb|----2--2--------3--3-----|
Gb|---2----2------2----2----|(2x)
Db|-------------0-----------|
Ab|-0-----------------------|
Eb|-------------------------|

[Interlude 1]
eb|-----------------0-----|
Bb|----2--2-------3--3----|
Gb|---2--2--2----2-----2--|
Db|------------0----------|
Ab|-0---------------------|
Eb|-----------------------|

[Interlude 2]
eb|-0-0-0-0--0-0-0--2-2-0-0-2--|
Bb|-2-2-0-2--0-2-0—-3-3-3-3-3--|
Gb|-2-2-2-2--2-2-2--2-2-2-2-2--|(2x)
Db|-2-2-2-2--2-2-2--0-0-0-0-0--|
Ab|-0-0-0-0--0-0-0-------------|
Eb|----------------------------|

[Interlude 4]
eb|-0-0-0-0-0-0-0-0--2-2-2-2-2-2-2-2--|
Bb|-2-2-2-2-2-2-2-2—-3-3-3-3-3-3-3-3--|
Gb|-2-2-2-2-2-2-2-2--2-2-2-2-2-2-2-2--|(3x)
Db|-2-2-2-2-2-2-2-2--0-0-0-0-0-0-0-0--|
Ab|-0-0-0-0-0-0-0-0-------------------|
Eb|-----------------------------------|

eb|--------------------------14-14-14-14-15-15-15-15--|
Bb|-14-14-14-14-14-14-14-14—-15-15-15-15-15-15-15-15--|
Gb|-14-14-14-14-14-14-14-14--14-14-14-14-14-14-14-14--|
Db|-14-14-14-14-14-14-14-14---0--0--0--0--0--0--0--0--|
Ab|--0--0--0--0--0--0--0--0---------------------------|
Eb|---------------------------------------------------|

[Solo]
eb|---17---17---17---17---17--17---17---17---17---17---17--17--|
Bb|-14---14---14---14---14--14---15---15---15---15---15--15----|
Gb|------------------------------------------------------------|(2x)
Db|------------------------------------------------------------|
Ab|------------------------------------------------------------|
Eb|------------------------------------------------------------|

eb|---17---17---17---17---17--17---17---17---17---17---17--17--|
Bb|-17---17---17---17---17--17---17---17---17---17---17--17----|
Gb|------------------------------------------------------------|
Db|------------------------------------------------------------|
Ab|------------------------------------------------------------|
Eb|------------------------------------------------------------|

eb|-17---17---17---17---17--17---17---17---17---17---17—-17----|
Bb|-17---17---17---17---17--17---19---19---19---19---19--19----|
Gb|------------------------------------------------------------|
Db|------------------------------------------------------------|
Ab|------------------------------------------------------------|
Eb|------------------------------------------------------------|

[Outro 1]
eb|-0-0-0-0-0-0-0-0--2-2-2-2-2-2-2-2--|
Bb|-2-2-2-2-2-2-2-2—-3-3-3-3-3-3-3-3--|
Gb|-2-2-2-2-2-2-2-2--2-2-2-2-2-2-2-2--|(2x)
Db|-2-2-2-2-2-2-2-2--0-0-0-0-0-0-0-0--|
Ab|-0-0-0-0-0-0-0-0-------------------|
Eb|-----------------------------------|

eb|--------------------------14-14-14-14-15-15-15-15--|
Bb|-14-14-14-14-14-14-14-14—-15-15-15-15-15-15-15-15--|
Gb|-14-14-14-14-14-14-14-14--14-14-14-14-14-14-14-12--|
Db|-14-14-14-14-14-14-14-14---0--0--0--0--0--0--0--0--|
Ab|--0--0--0--0--0--0--0--0---------------------------|
Eb|---------------------------------------------------|

eb|-0-0-0-0-0-0-0-0--2-2-2-2-2-2-2-2--|
Bb|-2-2-2-2-2-2-2-2—-3-3-3-3-3-3-3-3--|
Gb|-2-2-2-2-2-2-2-2--2-2-2-2-2-2-2-2--|
Db|-2-2-2-2-2-2-2-2--0-0-0-0-0-0-0-0--|
Ab|-0-0-0-0-0-0-0-0-------------------|
Eb|-----------------------------------|

[Outro 2]
eb|---|----------------------|
Bb|-2-|---2--2-------3--3----|
Gb|-2-|--2--2--2----2--2--2--|(4x)
Db|-2-|-----------0----------|
Ab|-0-|0---------------------|
Eb|---|----------------------|



************************************

| b  Bend
| — 

************************************
Suggest correction
comments
print report bad tab
1 comment total.
0 reply
GlenMuse95 10 Jun 11, 2011 11:18 PM

Perfection! Just needs some delay and you're all set to play this masterpiece. :)

guest
You may want to rate the tab now too:
select rating
Wanna post a correction for this tab? Suggest correction