Oops, an error
Loading. Please wait.

All I Want Is You Tab

version 1
version 1

Live

Whole song

Interactive

by U2
14,970 views 36 this week
1 commentread comment
1 2 3 4 5
excellent!
x 14
add to favorites
launch autoscroll
font size
0
reset
how to read this tab
guitar tuner
Autoscroll
slow
fast
+/-
esc
set tempo
stop
Help us to improve Ultimate-Guitar.com Take our survey!
×
Difficulty
Tuning
intermediate
D# G# C# F# A# D#
Band: U2
Song: All I want is you (Live)
Album/DVD: U2: Live Milan Vertigo Tour
Guitar Player: The Edge
Tabbed by: Kai
Tuning: 1/2 Step Down

Intro / Vers 1

eb|-----------------------|
Bb|----2--2-------3--3----|
Gb|---2--2--2----2--2--2--|8x
Db|------------0----------|
Ab|-0---------------------|
Eb|-----------------------|

Chorus

eb|-----2-----------2-------|
Bb|----2--2--------3--3-----|
Gb|---2----2------2----2----|2x
Db|-------------0-----------|
Ab|-0-----------------------|
Eb|-------------------------|

Interlude 1

eb|-----------------0-----|
Bb|----2--2-------3--3----|
Gb|---2--2--2----2-----2--|1x
Db|------------0----------|
Ab|-0---------------------|
Eb|-----------------------|

Interlude 2

eb|-0-0-0-0--0-0-0--2-2-0-0-2--|
Bb|-2-2-0-2--0-2-0—-3-3-3-3-3--|
Gb|-2-2-2-2--2-2-2--2-2-2-2-2--|2x
Db|-2-2-2-2--2-2-2--0-0-0-0-0--|
Ab|-0-0-0-0--0-0-0-------------|
Eb|----------------------------|

Vers 2

eb|-----------------------|
Bb|----2--2-------3--3----|
Gb|---2--2--2----2--2--2--|4x
Db|------------0----------|
Ab|-0---------------------|
Eb|-----------------------|

eb|---5--5-------5--5-----|
Bb|----5--5—------5--5----|
Gb|-----------------------|4x
Db|------------0----------|
Ab|-0---------------------|
Eb|-----------------------|

Chorus

eb|-----2-----------2-------|
Bb|----2--2--------3--3-----|
Gb|---2----2------2----2----|2x
Db|-------------0-----------|
Ab|-0-----------------------|
Eb|-------------------------|

Interlude 1

eb|-----------------0-----|
Bb|----2--2-------3--3----|
Gb|---2--2--2----2-----2--|1x
Db|------------0----------|
Ab|-0---------------------|
Eb|-----------------------|

Interlude 2

eb|-0-0-0-0--0-0-0--2-2-0-0-2--|
Bb|-2-2-0-2--0-2-0—-3-3-3-3-3--|
Gb|-2-2-2-2--2-2-2--2-2-2-2-2--|2x
Db|-2-2-2-2--2-2-2--0-0-0-0-0--|
Ab|-0-0-0-0--0-0-0-------------|
Eb|----------------------------|

Interlude 3

eb|-----------2---2--|
Bb|-2----2----3---3--|
Gb|-2----2----2---2--|2x
Db|-2----2----0---0--|
Ab|-0----0-----------|
Eb|------------------|

Vers 3

eb|---------------------------------------------|
Bb|-8-8--8----7----7----------------------------|
Gb|--9-9--9------9--9-9---9-9-9---9-9-9---------|2x
Db|---------------0--0-----------0---0-0--------|
Ab|-----0----------------0---0-0----------------|
Eb|---------------------------------------------|

Chorus

eb|-----2-----------2-------|
Bb|----2--2--------3--3-----|
Gb|---2----2------2----2----|2x
Db|-------------0-----------|
Ab|-0-----------------------|
Eb|-------------------------|

Interlude 1

eb|-----------------0-----|
Bb|----2--2-------3--3----|
Gb|---2--2--2----2-----2--|1x
Db|------------0----------|
Ab|-0---------------------|
Eb|-----------------------|

Interlude 2

eb|-0-0-0-0--0-0-0--2-2-0-0-2--|
Bb|-2-2-0-2--0-2-0—-3-3-3-3-3--|
Gb|-2-2-2-2--2-2-2--2-2-2-2-2--|2x
Db|-2-2-2-2--2-2-2--0-0-0-0-0--|
Ab|-0-0-0-0--0-0-0-------------|
Eb|----------------------------|

Interlude 4

eb|-0-0-0-0-0-0-0-0--2-2-2-2-2-2-2-2--|
Bb|-2-2-2-2-2-2-2-2—-3-3-3-3-3-3-3-3--|
Gb|-2-2-2-2-2-2-2-2--2-2-2-2-2-2-2-2--|3x
Db|-2-2-2-2-2-2-2-2--0-0-0-0-0-0-0-0--|
Ab|-0-0-0-0-0-0-0-0-------------------|
Eb|-----------------------------------|

eb|--------------------------14-14-14-14-15-15-15-15--|
Bb|-14-14-14-14-14-14-14-14—-15-15-15-15-15-15-15-15--|
Gb|-14-14-14-14-14-14-14-14--14-14-14-14-14-14-14-14--|1x
Db|-14-14-14-14-14-14-14-14---0--0--0--0--0--0--0--0--|
Ab|--0--0--0--0--0--0--0--0---------------------------|
Eb|---------------------------------------------------|

Solo

eb|---17---17---17---17---17--17---17---17---17---17---17--17--|
Bb|-14---14---14---14---14--14---15---15---15---15---15--15----|
Gb|------------------------------------------------------------|2x
Db|------------------------------------------------------------|
Ab|------------------------------------------------------------|
Eb|------------------------------------------------------------|

eb|---17---17---17---17---17--17---17---17---17---17---17--17--|
Bb|-17---17---17---17---17--17---17---17---17---17---17--17----|
Gb|------------------------------------------------------------|
Db|------------------------------------------------------------|
Ab|------------------------------------------------------------|
Eb|------------------------------------------------------------|

eb|-17---17---17---17---17--17---17---17---17---17---17—-17----|
Bb|-17---17---17---17---17--17---19---19---19---19---19--19----|
Gb|------------------------------------------------------------|
Db|------------------------------------------------------------|
Ab|------------------------------------------------------------|
Eb|------------------------------------------------------------|

Outro 1

eb|-0-0-0-0-0-0-0-0--2-2-2-2-2-2-2-2--|
Bb|-2-2-2-2-2-2-2-2—-3-3-3-3-3-3-3-3--|
Gb|-2-2-2-2-2-2-2-2--2-2-2-2-2-2-2-2--|2x
Db|-2-2-2-2-2-2-2-2--0-0-0-0-0-0-0-0--|
Ab|-0-0-0-0-0-0-0-0-------------------|
Eb|-----------------------------------|

eb|--------------------------14-14-14-14-15-15-15-15--|
Bb|-14-14-14-14-14-14-14-14—-15-15-15-15-15-15-15-15--|
Gb|-14-14-14-14-14-14-14-14--14-14-14-14-14-14-14-12--|1x
Db|-14-14-14-14-14-14-14-14---0--0--0--0--0--0--0--0--|
Ab|--0--0--0--0--0--0--0--0---------------------------|
Eb|---------------------------------------------------|

eb|-0-0-0-0-0-0-0-0--2-2-2-2-2-2-2-2--|
Bb|-2-2-2-2-2-2-2-2—-3-3-3-3-3-3-3-3--|
Gb|-2-2-2-2-2-2-2-2--2-2-2-2-2-2-2-2--|1x
Db|-2-2-2-2-2-2-2-2--0-0-0-0-0-0-0-0--|
Ab|-0-0-0-0-0-0-0-0-------------------|
Eb|-----------------------------------|

Outro 2

eb|---|----------------------|
Bb|-2-|---2--2-------3--3----|
Gb|-2-|--2--2--2----2--2--2--|4x
Db|-2-|-----------0----------|
Ab|-0-|0---------------------|
Eb|---|----------------------|

End

Please rate
Suggest correction
What's this?
You can suggest a correction to this tab. Community and Mods will review your correction and vote to approve or reject it.
comments
print report bad tab
1 comment total.
0 reply
GlenMuse95 43 wrote on June 11 2011, 11:18 pm

Perfection! Just needs some delay and you're all set to play this masterpiece. :)

guest
You may want to rate the tab now too:
select rating
Please do not post tabs as comments. Select "correction" instead!