Oops, an error
Loading. Please wait.

All I Want Is You Live tab

version 4
version 4

Whole song

Interactive

by U2
631 views 69 this week
no commentswrite comment
1 2 3 4 5
3 more votes to show rating
add to favorites
×
Save as Personal and add changes to this tab that will be seen only by you. Learn more ›
×
You can save this tab as Personal to edit and correct it or add notes. All changes will be seen only by you. Learn more »
launch autoscroll
font size
0
reset
how to read this tab
guitar tuner
backing track
0:00
0:00
edit
Autoscroll
slow
fast
+/-
esc
set tempo
stop
--------------------------------------------------------------------------
                       All I Want Is You(Live)--U2
--------------------------------------------------------------------------
Tabbed by: Glamdring804
Email: Glamdring408@gmail.com

My first tab. ;)

I've had a hard time finding a tab for the live arrangement the band 
have been using for the past two tours, so I decided to put this together 
from what I've figured out.

This is based off of the version played at the United Center, Chicago, on 
June 28, 2015. It's about 95% correct. I've tried to space the notes out 
with proper timing patterns, but you may have to listen to get it exact. 

You can watch the video here.

https://www.youtube.com/watch?v=g9L8Shphu94

Standard Edge setup, meaning tune down half a step (Eb tuning), heavy delay, 
and some moderate distortion.

Everything but the pre-chorus is built around an A-D chord progression. 
Unlike the studio version, the Edge starts off with the big, main riff.

Main Riff/Intro

   A               D
e|-----------------2-2-0-0-2-|
B|-2-2-0-2-0-2-0-2-3-3-3-3-3-|
G|-2-2-2-2-2-2-2-2-2-2-2-2-2-|   x2
D|-----------------0-0-0-0-0-|
A|---------------------------|
E|---------------------------|

Then on to the verse, which is just arpeggiated chords. Try to listen 
to the song for exact timing. 

Verse

  A             D
e|---------------------------|
B|-----2-2---2-------3-3---3-|
G|---2-----2-------2-----2---|   x4
D|---------------0-----------|
A|-0-------------------------|
E|---------------------------|

The "All the promises…" part.

Pre-Chorus

  F#m             D                F#m            D
e|-------2----------------2--------------2----------------2--------|
B|-----2-----2----------3----3---------2-----2----------3----3-----|
G|---2---------2------2--------2-----2---------2------2--------2---|
D|-4-------------4—0-------------0-4-------------4—0-------------0-|
A|-----------------------------------------------------------------|
E|-----------------------------------------------------------------|

  A             D
e|-----------------------0---|
B|-----2-2---2-------3-3---3-|
G|---2-----2-------2---------|   
D|---------------0-----------|
A|-0-------------------------|
E|---------------------------|

Then back to the main riff.

   A               D
e|-----------------2-2-0-0-2-|
B|-2-2-0-2-0-2-0-2-3-3-3-3-3-|
G|-2-2-2-2-2-2-2-2-2-2-2-2-2-|   x2
D|-----------------0-0-0-0-0-|
A|---------------------------|
E|---------------------------|

For the second verse, Edge goes back to arppegiating, alternating between
these slightly different variants. The A-D chord progression is repeated 
4 times total.

Verse 2

  A             D
e|-----------------------0---|
B|-----2-2---2-------3-3---3-|
G|---2-----2-------2---------|
D|---------------0-----------|
A|-0-------------------------|
E|---------------------------|

  A             D
e|---------------------------|
B|-----2-2---2-------3-3---3-|
G|---2-----2-------2-----2---|
D|---------------0-----------|
A|-0-------------------------|
E|---------------------------|

Right after the "All the riches in the night…" line, Edge switches to 
barre chords.

  A                D
e|-----------5--------5---5---5--|
B|---5---5-----5----5---5---5--5-|
G|-----6---6-----6--7------------|   x4
D|-------------------------------|
A|-0-----------------------------|
E|-------------------------------|

Back to the pre-chorus.
 
F#m             D                F#m            D
e|-------2----------------2---------------2-----------------2--------|
B|-----2-----2----------3----3----------------2-----------3----3-----|
G|---2---------2------2--------2--------2-------2-------2--------2---|
D|---------------4--0------------0----4-----------4--0-------------0-|
A|-4--------------------------------4--------------------------------|
E|-------------------------------------------------------------------|

                                 Repeat the main riff twice, then let 
                                 a big A ring out.  
        
  A             D                A               D          A
e|------------------------0----------------------2-2-0-0-2--0-|
B|-----2-2---2--------3-3---3----2-2-0-2-0-2-0-2-3-3-3-3-3--2-|
G|---2-----2---2----2---------2--2-2-2-2-2-2-2-2-2-2-2-2-2--2-|
D|---------------0-------------------------------0-0-0-0-0--2-|
A|-0--------------------------------------------------------0-|
E|------------------------------------------------------------|

The guitar is silent for a moment, then the Edge quietly starts playing 
these fills while Bono talks about Johnny and June Cash. These aren't exact, 
but you get the idea.

e|-------------------------------------------------|
B|-----------------------------------------3-3---3-|
G|-11--11-11-11-12-11-11-11-11-9-9-9---6-6-----6---|
D|-------------------------------------------------|
A|-------------------------------------------------|
E|-------------------------------------------------|

e|--------------------------------------------------|
B|------------------8-7-7-7-5-5-5-3h5-5-5-3-3-5-5-5-|
G|-11-11-11-11-11h12--------------------------------|
D|--------------------------------------------------|
A|--------------------------------------------------|
E|--------------------------------------------------|

e|--------------------------------------------------|
B|--------------------------------------------------|
G|-12-12-12-11-11-11-11-9-9-9-9-9-9-9-7-7-7-6-6-7-6-|
D|--------------------------------------------------|
A|--------------------------------------------------|
E|--------------------------------------------------|

When Bono starts the third verse, Edge switches to this.

Third Verse

e|---------------------------------------------------|
B|------8--8--8--8--8--8--------------------5-5-5-5--|
G|-12-12-12-12-12-12-12-12-11-11-11-11-9-9-9-9-9-9-9-|   x4
D|---------------------------------------------------|
A|---------------------------------------------------|
E|---------------------------------------------------|

Keep playing this after the last repeat.

e|-----------------|
B|--5-5-5-5-5-5-5--|
G|-9-9-9-9-9-9-9-9-|
D|-----------------|
A|-----------------|
E|-----------------|

Then pre-chorus again.

  F#m             D                F#m            D
e|-------2----------------2--------------2----------------2--------|
B|-----2-----2----------3----3---------------2----------3----3-----|
G|---2---------2------2--------2-------2-------2------2--------2---|
D|---------------4—0-------------0---4-----------4—0-------------0-|
A|-4-------------------------------4-------------------------------|
E|-----------------------------------------------------------------|

  A             D
e|-----------------------0---|
B|-----2-2---2-------3-3---3-|
G|---2-----2-------2---------|   
D|---------------0-----------|
A|-0-------------------------|
E|---------------------------|


Main riff again.

  A                D
e|-----------------2-2-0-0-2-|
B|-2-2-0-2-0-2-0-2-3-3-3-3-3-|
G|-2-2-2-2-2-2-2-2-2-2-2-2-2-|   x2
D|-----------------0-0-0-0-0-|
A|---------------------------|
E|---------------------------|

When Bono shouts "All I want is YOUUUU-HOOOOO," start ripping open chords.

Bridge

   A       D       A       D
e|-0-0-0-0-2-2-2-2-0-0-0-0-2-2-2-2-|
B|-2-2-2-2-3-3-3-3-2-2-2-2-3-3-3-3-|
G|-2-2-2-2-2-2-2-2-2-2-2-2-2-2-2-2-|
D|-2-2-2-2-0-0-0-0-2-2-2-2-0-0-0-0-|
A|-0-0-0-0---------0-0-0-0---------|
E|---------------------------------|

Edge plays this bit, then goes into the solo.

Solo

e|-0-------14-14-14-14--17--17--17--17------17--17--17--17--17-|
B|-2----14-15-15-15-15----14--14--14--14--15--15--15--15--14---|
G|-2----14-14-14-14-14-----------------------------------------|
D|-2----14-0--0--0--0------------------------------------------|
A|-0----0------------------------------------------------------|
E|-------------------------------------------------------------|

e|---17--17--17--17--17--17--17--17-|
B|-14--14--14--14--15--15--15--15---|
G|----------------------------------|
D|----------------------------------|
A|----------------------------------|
E|----------------------------------|


e|---17--17--17--17--17-17-17-17-17-17-17-17-20-20-20-20-|
B|-17--17--17--17----17-17-17-17-17-17-17-17-17-17-17-17-|
G|-------------------------------------------------------|
D|-------------------------------------------------------|
A|-------------------------------------------------------|
E|-------------------------------------------------------|

Back to open chords, letting them ring out.

Bridge 2

   A       D       A       D
e|-0---0-0-2-2-2-2-0---0-0-2-2-2-2-|
B|-2---2-2-3-3-3-3-2---2-2-3-3-3-3-|
G|-2---2-2-2-2-2-2-2---2-2-2-2-2-2-|
D|-2---2-2-0-0-0-0-2---2-2-0-0-0-0-|
A|-0---0-0---------0---0-0---------|
E|---------------------------------|

He proceeds to slide up an octave, and then finish with a big open A.

   A           D            A          D
e|-------------14-14-14-14-------------14-14-14-14--------|
B|-14-14-14-14-15-15-15-15-14-14-14-14-15-15-15-15--222-2-|
G|-14-14-14-14-14-14-14-14-14-14-14-14-14-14-14-14--222-2-|
D|-14-14-14-14-0--0--0--0--14-14-14-14-0--0--0--0---222-2-|
A|-0--0--0--0--------------0--0--0--0---------------000-0-|
E|--------------------------------------------------------|

Edge finishes with this fill, repeating and fading to segue into With or
Without You.

Outro

e|---------------------------------------------------|
B|------8--8--8--8--8--8--------------------5-5-5-5--|
G|-12-12-12-12-12-12-12-12-11-11-11-11-9-9-9-9-9-9-9-|
D|---------------------------------------------------|
A|---------------------------------------------------|
E|---------------------------------------------------|





            
            
Suggest correction
Creating personal tab
Creating personal tab
You can edit any tab online and save it as your Personal.

You can edit, replace or remove any tab part or add personal notes – all changes will be seen only by you.

Personal tabs can be accessed anytime from any device, even offline.
Learn more »
Give kudos to tab author, rate the tab!
1 2 3 4 5
comments
print report bad tab
guest
You may want to rate the tab now too:
select rating
Wanna post a correction for this tab? Suggest correction