Oops, an error
Loading. Please wait.

An Cat Dubh Bass Tab

version 1
version 1

Whole song

Interactive

by U2
1,586 views 3 this week
4 commentsread comments
1 2 3 4 5
x 3
add to favorites
launch autoscroll
font size
0
reset
guitar tuner
Autoscroll
slow
fast
+/-
esc
set tempo
stop
Help us to improve Ultimate-Guitar.com Take our survey!
×
U2 - "An Cat Dubh" BASS TAB
---------------------------
steve palmer am560@freenet.carleton.ca

Tune down 1/2 step to: Eb Ab Db Gb

Main bass riff:
   D                D
|----------------|-----------------|
|:------------7--|-------------7---|
|:-5-5-5-5-5-----|--5-5-5-5-5------|
|----------------|-----------------|

Chorus:
   C        G        D
|--------------------------------------|
|:-------------------------------------|
|:-3-3-3-3-----------5-5---3/5-3/5-5---|
|-----------3-3-3-3--------------------|
  (3X)
   C        G        F
|--------------------------------------|
|:-------------------------------------|
|:-3-3-3-3-----------------------------|
|-----------3-3-3-3--1------1/13-------|


2nd solo bass riff:
    D                   D
|--------------------|-------------------|
|:-------------------|-------------------|
|:--5-5-5-5-5-5/8-7--|--5-5-5-5-5-5/8-7--|
|--------------------|-------------------|
Suggest correction
Give kudos to tab author, rate the tab!
1 2 3 4 5
comments
print report bad tab
4 comments total. Showing first comments.
+2 reply
Eric Needreary 156 Jan 15, 2008 04:26 PM

the correct main bass riff is


G|-----------7---|
D|---------------|
A|-5-5-5-5-5-----|
E|---------------|

+2 reply
Eric Needreary 156 Jan 15, 2008 04:54 PM

I've post another version to this song. =D

0 reply
ZeStinvurger 31 Sep 30, 2008 07:24 PM

where?

guest
You may want to rate the tab now too:
select rating
Wanna post a correction for this tab? Suggest correction