Oops, an error
Loading. Please wait.

Angel Of Harlem Bass Tab

version 2
version 2

Whole song

Interactive

by U2
8,786 views 21 this week
no commentswrite comment
1 2 3 4 5
excellent!
x 9
add to favorites
launch autoscroll
font size
0
reset
guitar tuner
Autoscroll
slow
fast
+/-
esc
set tempo
stop
Help us to improve Ultimate-Guitar.com Take our survey!
×
Contributor
Difficulty
Jeroen82 198
novice
U2 - ANGEL OF HARLEM (BASS TAB)
-----------------------------

Verse
G|-----------|-------------|
D|-----------|-------------|
A|-3-------0-|-3-------0-2-|
E|---0-1-3---|---0-1-3-----|

Chorus
G|-----------|-----------|-----------|
D|-3-------3-|-5-------5-|-5-------5-|
A|---0-3-5---|---0-5-7---|---0-5-7---|
E|-----------|-----------|-----------|

G|-----------|-----------|-----------|
D|-3-------3-|-3-------3-|-5-------5-|
A|---0-3-5---|---0-3-5---|---0-5-7---|
E|-----------|-----------|-----------|

Bridge
G|-----------|-----------|-----------|-----------|
D|-----------|-----------|-----------|-----------|
A|-----------|-----------|-----------|-----------|
E|-5-------5-|-3-----3-3-|-1---------|---1-1-1-1-|

G|-----------|-----------|-----------|-----------------|
D|-----5-7-5-|-----3-5-3-|-----------|-3-2-0-----------|
A|---7-------|---5-------|-----------|-------3-2-0-----|
E|-5---------|-3---------|-1~--------|-------------3-1-|


Have fun!
comments
print report bad tab
I want to post or [tab]
guest
You may want to rate the tab now too:
select rating
Please do not post tabs as comments. Select "correction" instead!