Oops, an error
Loading. Please wait.

Bad Tab

version 2
version 2

Whole song

Interactive

18,129 views 15 this week
5 commentsread comments
1 2 3 4 5
x 9
add to favorites
launch autoscroll
font size
0
reset
how to read this tab
guitar tuner
×
Best way to learn
"Bad"
Autoscroll
slow
fast
+/-
esc
set tempo
stop
U2-Bad

Tabbed By Kevin Brosky

Some people say this song has two guitar parts but I believe it can be played in one.

This is how I play the main riff and it could be wrong but here goes:


E|--------------------12-12--------------------12-12-|
B|---------------------------------------------------|
G|---------------------------------------------------|
D|--12-12-12-12--11----------12-12-12-12--11---------|
A|--0---0--0--0---0----------0---0--0--0---0---------|
E|---------------------------------------------------|

E|--------------------------------------------------|
B|-------------10-10------------10---10-------------|
G|--9-9-9-9-7---------9-9-9-9-7----7----7-----------|
D|--0-0-0-0-0---------0-0-0-0-0---------------------|
A|--------------------------------------------------|
E|--------------------------------------------------|

This is played repeatedly throughout the song.

It sounds good with echo or reverb.  Enjoy!
Suggest correction
comments
print report bad tab
5 comments total. Showing first comments.
0 reply
quickag_drake 10 Sep 06, 2006 11:31 PM

i've always thought this worked well as a rhythm lead:


e:|---0----0-0---0----0------------|-----------------------0--------|
b:|-2----2-----2----2---2--2--2----|---3----3-3---3----3-----3---3--|
g:|--------------------------------|-2----2-----2----2---2-----2----|
d:|--------------------------------|--------------------------------|
a:|--------------------------------|--------------------------------|
e:|--------------------------------|--------------------------------|

...

q.d.

0 reply
moneyman40 10 Oct 12, 2006 10:57 AM

close enough but its wrong nice try

0 reply
moneyman40 10 Oct 13, 2006 05:53 PM

i changed my mind version 1 is better this tab stinks

guest
You may want to rate the tab now too:
select rating
Wanna post a correction for this tab? Suggest correction