Oops, an error
Loading. Please wait.

Bullet The Blue Sky Tab

version 1
version 1

Whole song

Interactive

by U2
24,114 views 75 this week
1 commentread comment
1 2 3 4 5
x 4
add to favorites
×
Save as Personal and add changes to this tab that will be seen only by you. Learn more ›
×
You can save this tab as Personal to edit and correct it or add notes. All changes will be seen only by you. Learn more »
save as personal
new!
launch autoscroll
font size
0
reset
how to read this tab
guitar tuner
backing track
0:00
0:00
Autoscroll
slow
fast
+/-
esc
set tempo
stop
#-----------------------------------------------------------------------------#
#-- File created with Instab - http://www.pconline.com/~smcarey/instab.html --#
#-----------------------------------------------------------------------------#

Author/Artist: U2
Title: Bullet the Blue Sky
Album: Rattle and Hum
Transcribed by: Scott Hashbarger
Email: scootermuhbob@yahoo.com

Tune down 1/2 step. Most of the chords use a slide,
except for the Chorus.

For the slide parts (and solo) he uses distortion
with some slap back delay and echo.

Intro (also played before solo)

----------------------------------|-------------------------------------------|
-12\0---12\0---12\0---12\0--------|-------------------------------------------|
-12\0---12\0---12\0---12\0--------|-------------------------------------------|
-12\0---12\0---12\0---12\0--------|-------------------------------------------|
----------------------------------|-------------------------------------------|
----------------------------------|-0-----------------------------------------|
 Verse                              (second verse w/feedback)

-|-----------|-----------------|-------------------------------|--------------|
-|-----------|-x--x--x--x--x---|---14v-------------------------|--------------|
-|-----------|-x--x--x--x--x---|-------------------------------|--------------|
-|-----------|-x--x--x--x--x---|-------------------------------|--------------|
-|-----------|-x--x--x--x--x---|-------------------------------|--------------|
-|-0v--------|-x--x--x--x--x---|-------------------------------|--------------|
 Chorus (repeat 6 times)(no slide)

-----------------------|---------|--------------------------------------------|
-7-7-9----------9-9----|---------|--------------------------------------------|
-7-7-9----------9-9----|---------|--------------------------------------------|
-7-7-9----------9-9----|---------|--------------------------------------------|
-----------------------|--7v-----|--------------------------------------------|
-----------------------|---------|--------------------------------------------|
 Solo

------------------------------------------------------------------------------|
-12-----12------12-----12-----12/14--12/14--14--------------------------------|
---12-----12------12-----12---12/14--12/14-----14-----------------------------|
-----12-----12------12-----12-12/14--12/14--------14--------------------------|
------------------------------------------------------------------------------|
------------------------------------------------------------------------------|


------------------------------------------------------------------------------|
-12-----12------12-----12-----12/14--14---14-----14----15---15----17\---------|
---12-----12------12-----12---12/14----14---14------14---15---15--17\---------|
-----12-----12------12-----12-12/14-----------14------------------------------|
------------------------------------------------------------------------------|
------------------------------------------------------------------------------|
 No slide here:

----14-----14-----14-----14----14-----14\-------------------------------------|
-16b----16b---16b-----16b---16b---16------------------------------------------|
------------------------------------------------------------------------------|
------------------------------------------------------------------------------|
------------------------------------------------------------------------------|
------------------------------------------------------------------------------|
   repeat 4 times                fun w/feedback            more feedback

-|-------------------------|-----------------------------|--------|-----------|
-|-----16--16/18\16/18\16--|-----------------------------|--------|-----------|
-|-----16--16/18\16/18\16--|-----------------------------|---14v--|-----------|
-|-----16--16/18\16/18\16--|-----------------------------|--------|-----------|
-|-------------------------|-----------------------------|--------|-----------|
-|-0-0---------------------|-0\/v------------------------|--------|-----------|
 "...fighter planes..."    (fade notes in and out)

------------------------|-----------------------------------------------------|
------------------------|-----------------------------------------------------|
------------------------|-----------------------------------------------------|
------------------------|-----------------------------------------------------|
-0----------------------|--0--------------------------------------------------|
------------------------|-----------------------------------------------------|
 somewhere in the song he does this as a fill

------------------------------------------------------------------------------|
------------------------------------------------------------------------------|
-19\--------------------------------------------------------------------------|
------------------------------------------------------------------------------|
------------------------------------------------------------------------------|
------------------------------------------------------------------------------|
Suggest correction
comments
print report bad tab
1 comment total.
0 reply
nik_I 102 Nov 15, 2006 11:54 AM

during the verse this part can be heard:

E|9-9-9-11-9-11------------------------
or with the rest of the song in Eb tuning:

Eb|10-10-10-12-10-12-------------------

guest
Wanna post a correction for this tab? Suggest correction