Oops, an error
Loading. Please wait.

Cedarwood Road tab

version 1
version 1

Whole song

by U2
13,797 views 42 this week
1 commentread comment
1 2 3 4 5
x 22
add to favorites
×
Save as Personal and add changes to this tab that will be seen only by you. Learn more ›
×
You can save this tab as Personal to edit and correct it or add notes. All changes will be seen only by you. Learn more »
launch autoscroll
font size
0
reset
how to read this tab
guitar tuner
edit
Autoscroll
slow
fast
+/-
esc
set tempo
stop
Author
Difficulty
Sorry for any errors, this is my first tab, I think it's simple and I hope that it's right.

Anyway in this song I use a distortion during the whole song and a delay(with a bit of feedback, high volume 

and  ripetions fast enough) only in some parts.

[Intro] (with delay)
E|------------------------------------|
B|-10---8-7-8-7-----7-7-7-------------|
G|--------------9----------9-9--------|
D|------------------------------------|  x4
A|------------------------------------|
E|------------------------------------|

Now without delay
E|----------------------------------------------------x--x-|
B|----------------------------------------------------7--9-|
G|----------------------------------------------------7--9-|
D|----------------------------------------------------7--9-|   x2
A|----------------------------------------------------5--7-|
E|-0-0-0-0-5-3---0---0-0-0-5-3---0-0-0-0-0-5-3---0-0--x--x-|
  (P.M         P.M.        P.M        P.M       P.M)

E|----------------------------------------------------x--x--|    |----------------|
B|----------------------------------------------------7--9--|    |----------------|
G|----------------------------------------------------7--9--|    |----------------|
D|----------------------------------------------------7--9--| x2 |----------------|
A|----------------------------------------------------5--7--|    |-7-5-2-0--------|
E|-0---0-0-5-3---0---0-0-0-5-3---0---0-0-5-3---0-0----x--x--|    |----------3-2-0-|
   (THIS WITHOUT P.M.)

Then, during the verse, play the chords E, A, G, C, A, B with P.M. and always without delay.

[Chorus] (with delay)
E|------------------------------------|
B|-10---8-7-8-7-----7-7-7-------------|
G|--------------9----------9-9--------|
D|------------------------------------|  x6
A|------------------------------------|
E|------------------------------------|

And then again without delay
E|----------------------------------------------------x--x--      ----------------|
B|----------------------------------------------------7--9--      ----------------|
G|----------------------------------------------------7--9--      ----------------|
D|----------------------------------------------------7--9-- x2   ----------------|
A|----------------------------------------------------5--7--      -7-5-2-0--------|
E|-0---0-0-5-3---0---0-0-0-5-3---0---0-0-5-3---0-0----x--x--      ----------3-2-0-|
   (THIS WITHOUT P.M.)

Then, during the verse, play the chords E, A, G, C, A, B with P.M. and always without delay.

[Chorus] (with delay)
E|------------------------------------|
B|-10---8-7-8-7-----7-7-7-------------|
G|--------------9----------9-9--------| x6
D|------------------------------------|
A|------------------------------------|
E|------------------------------------|

And then without delay
E|----------------------------------------------------x--x--|
B|----------------------------------------------------7--9--|
G|----------------------------------------------------7--9--|
D|----------------------------------------------------7--9--| x2
A|----------------------------------------------------5--7--|
E|-0---0-0-5-3---0---0-0-0-5-3---0---0-0-5-3---0-0----x--x--|
   (THIS WITHOUT P.M.)

[Bridge]
E|----------------------------------|
B|----------------------------------|
G|-9(x8)-12-12-14-16-16-16ph17h16---| x10
D|----------------------------------|
A|----------------------------------|
E|----------------------------------|

[Outro]
E|----------------------------------------------------x--x--|    |----------------|
B|----------------------------------------------------7--9--|    |----------------|
G|----------------------------------------------------7--9--|    |----------------|
D|----------------------------------------------------7--9--| x4 |----------------|
A|----------------------------------------------------5--7--|    |-7-5-2-0--------|
E|-0---0-0-5-3---0---0-0-0-5-3---0---0-0-5-3---0-0----x--x--|    |----------3-2-0-|
   (THIS WITHOUT P.M.)

That's all, thanks! :)

************************************

| x  Dead note
| h  Hammer-on

************************************
Suggest correction
Creating personal tab
Creating personal tab
You can edit any tab online and save it as your Personal.

You can edit, replace or remove any tab part or add personal notes – all changes will be seen only by you.

Personal tabs can be accessed anytime from any device, even offline.
Learn more »
comments
print report bad tab
1 comment total.
0 reply
mforester 12 Dec 01, 2016 05:57 PM

One suggestion, on the intro and choruses play the 5th fret of the B string on the 9th fret of G string instead then you can stay in one position.

guest
You may want to rate the tab now too:
select rating
Wanna post a correction for this tab? Suggest correction