Oops, an error
Loading. Please wait.

City Of Blinding Lights tab

version 4
version 4

Whole song

Interactive

by U2
2,672 views 1 this week
no commentswrite comment
1 2 3 4 5
2 more votes to show rating
add to favorites
×
Save as Personal and add changes to this tab that will be seen only by you. Learn more ›
×
You can save this tab as Personal to edit and correct it or add notes. All changes will be seen only by you. Learn more »
launch autoscroll
font size
0
reset
how to read this tab
guitar tuner
backing track
0:00
0:00
edit
Autoscroll
slow
fast
+/-
esc
set tempo
stop
Author
                             CITY OF BLINDING LIGHTS
                                As recorded by U2
              (From the 2004 Album HOW TO DISMANTLE AN ATOMIC BOMB)

Words by Bono

Music by U2
Arranged by oranno@yahoo.fr
Transcribed by oranno@yahoo.fr

          A5                    A                    B                   F#
     x x x x 10 12         5 7 7 6 5 5          7 9 9 8 7 7          2 4 4 3 2 2

         Cadd9                Dsus2                  E                   G#
      x 3 2 0 3 0          x x 0 2 3 0          0 2 2 1 0 0          4 6 6 5 4 4

           D
      x x 0 2 3 2

Gtr I (D# G# C# F# A# D#) - 'Untitled'
Gtr II (D# G# C# F# A# D#) - 'Untitled'
Gtr III (D# G# C# F# A# D#) - 'Untitled'
Gtr IV (D# G# C# F# A# D#) - 'Untitled'
Gtr V (D# G# C# F# A# D#) - 'Untitled'
Gtr VI (D# G# C# F# A# D#) - 'Untitled'

 Intro
  Q=60                  Q=139
  N.C.                     A5
 4/4
  Gtr II
  ~~~~~~~~~~~~~~~~~~~~~~~~~~~~~~~~~~~~~~~~~~~~~~~~~~~~~~~~
  W          +W            +W                         +W
|----------|------------||--------------------------|--------------------------|
|----------|------------||--------------------------|--------------------------|
|----------|------------||--------------------------|--------------------------|
|----------|------------||--------------------------|--------------------------|
|----------|------------||--------------------------|--------------------------|
|-0--------|-(0)--------||-(0)----------------------|-(0)----------------------|
|
| Gtr I
| W           W             E   E  E  E  E  E  E  E    E   E  E  E  E  E  E  E
|----------|------------||-12--12-12-12-12-12-12-12-|-12--12-12-12-12-12-12-12-|
|----------|------------||-10--10-10-10-10-10-10-10-|-10--10-10-10-10-10-10-10-|
|----------|------------||--------------------------|--------------------------|
|----------|------------||--------------------------|--------------------------|
|----------|------------||--------------------------|--------------------------|
|----------|------------||--------------------------|--------------------------|


   ~~~~~~~~~~~~~~~~~~~~~~~~~~~~~~~~~~~~~~~~~~~~~~~~~~~~
  +W                         +W
|--------------------------|--------------------------|
|--------------------------|--------------------------|
|--------------------------|--------------------------|
|--------------------------|--------------------------|
|--------------------------|--------------------------|
|-(0)----------------------|-(0)----------------------|
|
|  E   E  E  E  E  E  E  E    E   E  E  E  E  E  E  E
|-12--12-12-12-12-12-12-12-|-12--12-12-12-12-12-12-12-|
|-10--10-10-10-10-10-10-10-|-10--10-10-10-10-10-10-10-|
|--------------------------|--------------------------|
|--------------------------|--------------------------|
|--------------------------|--------------------------|
|--------------------------|--------------------------|


 ~~~~~~~~~~~~~~~~~~~~~~~~~~~~~~~~
  +W                         +W
|--------------------------|---------------------------||
|--------------------------|---------------------------||
|--------------------------|---------------------------||
|--------------------------|---------------------------||
|--------------------------|---------------------------||
|-(0)----------------------|-(0)-----------------------||
|
|  E   E  E  E  E  E  E  E    E   E  E  E  E  E  E  E
|-12--12-12-12-12-12-12-12-|-12--12-12-12-12-12-12-12--||
|-10--10-10-10-10-10-10-10-|-10--10-10-10-10-10-10-10--||
|--------------------------|---------------------------||
|--------------------------|---------------------------||
|--------------------------|---------------------------||
|--------------------------|---------------------------||


    A                                  B
    Gtr IV
     W                        +H       H
     |                         |       |
     o                         /       o

    Gtr III
     H           H             H       H
||---7-----------5----------|--4-------2---------|
||o-------------------------|--------------------|
||--------------------------|--------------------|
||--------------------------|--------------------|
||o-------------------------|--------------------|
||--------------------------|--------------------|
|
|   Gtr II
|    PM-------------------------------------------
|    E  E  E  E  E  E  E  E    E E E E E  E  E E
||--------------------------|--------------------|
||o-10-10-10-10-10-10-10-10-|-10-9-9-9-9-12-12-9-|
||--------------------------|--------------------|
||--------------------------|--------------------|
||o-------------------------|--------------------|
||--------------------------|--------------------|


  F#
   W                        +W
   |                         |
   o                         /

   H           H             H           H
|--5-----------4----------|--2-----------0----------|
|-------------------------|-------------------------|
|-------------------------|-------------------------|
|-------------------------|-------------------------|
|-------------------------|-------------------------|
|-------------------------|-------------------------|
|
|---------------------------|
|  E  E  E  E  E  E  E  E    E  E  E  E  E  E  E  E
|-------------------------|-------12----12----12----|
|-10-10-10-10-10-10-10-10-|-10-10----10----10----10-|
|-------------------------|-------------------------|
|-------------------------|-------------------------|
|-------------------------|-------------------------|
|-------------------------|-------------------------|


  A                                  B
   W                        +H       H
   |                         |       |
   o                         /       o

   H           H             H       H
|--7-----------5----------|--4-------2---------|
|-------------------------|--------------------|
|-------------------------|--------------------|
|-------------------------|--------------------|
|-------------------------|--------------------|
|-------------------------|--------------------|
|
|  E  E  E  E  E  E  E  E    E E E E E  E  E E
|-------------------------|--------------------|
|-10-10-10-10-10-10-10-10-|-10-9-9-9-9-12-12-9-|
|-------------------------|--------------------|
|-------------------------|--------------------|
|-------------------------|--------------------|
|-------------------------|--------------------|


                           1.
  F#
   W                        +W
   |                         |
   o                         /

   H           H             H           H
|--5-----------4----------|--2-----------0--------------||
|-------------------------|----------------------------o||
|-------------------------|-----------------------------||
|-------------------------|-----------------------------||
|-------------------------|----------------------------o||
|-------------------------|-----------------------------||
|
|  E  E  E  E  E  E  E  E    E  E  E  E  S  S  E  E  E
|-------------------------|-------12-------------12-----||
|-10-10-10-10-10-10-10-10-|-10-10----10-10-10-10----10-o||
|-------------------------|-----------------------------||
|-------------------------|-----------------------------||
|-------------------------|----------------------------o||
|-------------------------|-----------------------------||


  2.
                              A                                       B
  +W                           W                            +H         H
   |                           |                             |         |
   /                           o                             /         o

                              Gtr V
                               TP        TP  TP              TP        TP     TP
   H           H               Q.        E  +H              +H         Q      Q
|--2-----------0----------||-----------------------------|------------------------|
|-------------------------||o-15--------14-(14)----------|-(14)-------10-----12---|
|-------------------------||-----------------------------|------------------------|
|-------------------------||-----------------------------|------------------------|
|-------------------------||o----------------------------|------------------------|
|-------------------------||-----------------------------|------------------------|
|
|                             Gtr I
|  W                           Q.        E  +H              +H         Q      Q
|-------------------------||-----------------------------|------------------------|
|-------------------------||o-15--------14-(14)----------|-(14)-------10/----12---|
|-------------------------||-----------------------------|------------------------|
|-------------------------||-----------------------------|------------------------|
|-------------------------||o----------------------------|------------------------|
|-------------------------||-----------------------------|------------------------|
|
| Gtr II
|                              PM--------------------------------------------------
|  E  E  E  E  E  E  E  E      E   E  E  E   E   E  E  E     E  E E E  E   E  E E
|-------12----12----12----||-----------------------------|------------------------|
|-10-10----10----10----10-||o-10--10-10-10--10--10-10-10-|--10--9-9-9--9--12-12-9-|
|-------------------------||-----------------------------|------------------------|
|-------------------------||-----------------------------|------------------------|
|-------------------------||o----------------------------|------------------------|
|-------------------------||-----------------------------|------------------------|


  F#
   W                             +W
   |                              |
   o                              /

   TP        TP  TP      TP       TP           TP     TP
   Q.        E  +Q       Q       +H            Q      Q
|-----------------------------|------------------------------|
|-15--------14-(14)-----10----|-(10)----------10-----12------|
|-----------------------------|------------------------------|
|-----------------------------|------------------------------|
|-----------------------------|------------------------------|
|-----------------------------|------------------------------|
|
|  Q.        E  +Q       Q       +H            Q      Q
|-----------------------------|------------------------------|
|-15\-------14-(14)\----10----|-(10)----------10/----12------|
|-----------------------------|------------------------------|
|-----------------------------|------------------------------|
|-----------------------------|------------------------------|
|-----------------------------|------------------------------|
|
|-------------------------------|
|  E   E  E  E   E    E  E  E     E   E  E  E  E   E  E  E
|-----------------------------|---------12----12-----12------|
|-10--10-10-10--10---10-10-10-|--10--10----10-----10----10---|
|-----------------------------|------------------------------|
|-----------------------------|------------------------------|
|-----------------------------|------------------------------|
|-----------------------------|------------------------------|


  A                                       B             F#
   W                            +H         H             W
   |                             |         |             |
   o                             /         o             o

   TP        TP  TP              TP        TP            TP
   Q.        E  +H              +H         H             W
|----------------------------|------------------------|-------------------------|
|-15--------14-(14)----------|-(14)-------12----------|--7----------------------|
|----------------------------|------------------------|-------------------------|
|----------------------------|------------------------|-------------------------|
|----------------------------|------------------------|-------------------------|
|----------------------------|------------------------|-------------------------|
|
|  Q.        E  +H              +H         H             W
|----------------------------|------------------------|-------------------------|
|-15--------14-(14)----------|-(14)-------12\---------|--7----------------------|
|----------------------------|------------------------|-------------------------|
|----------------------------|------------------------|-------------------------|
|----------------------------|------------------------|-------------------------|
|----------------------------|------------------------|-------------------------|
|
|  PM----------------------------------------------------------------------------
|  E   E  E  E   E   E  E  E     E  E E E  E   E  E E    E  E  E  E  E  E  E  E
|----------------------------|------------------------|-------------------------|
|-10--10-10-10--10--10-10-10-|--10--9-9-9--9--12-12-9-|-10-10-10-10-10-10-10-10-|
|----------------------------|------------------------|-------------------------|
|----------------------------|------------------------|-------------------------|
|----------------------------|------------------------|-------------------------|
|----------------------------|------------------------|-------------------------|


 1.                            2.
                                F#
  +W                            +W
   |                             |
   /                             /

   TP           TP     TP        TP
  +H            Q      Q         W
|----------------------------||---------------------------|
|-(7)----------10-----12----o||--7------------------------|
|----------------------------||---------------------------|
|----------------------------||---------------------------|
|---------------------------o||---------------------------|
|----------------------------||---------------------------|
|
| +H            Q      Q         W
|----------------------------||---------------------------|
|-(7)----------10/----12----o||--7------------------------|
|----------------------------||---------------------------|
|----------------------------||---------------------------|
|---------------------------o||---------------------------|
|----------------------------||---------------------------|
|
|-|                              PM
|  E   E  E  E  E   E  E  E      E  E  E  E  E  E  E  E
|--------12----12-----12-----||-------12----12----12------|
|-10--10----10-----10----10-o||-10-10----10----10----10---|
|----------------------------||---------------------------|
|----------------------------||---------------------------|
|---------------------------o||---------------------------|
|----------------------------||---------------------------|


   Verse
    A
     W
     |
     o

    Gtr II
     PM----------------------
     E  E  E  E  E  E  E  E
||--------------------------|
||o-10-10-10-10-10-10-10-10-|
||--------------------------|
||--------------------------|
||o-------------------------|
||--------------------------|


              B             F#
  +H           H             W
   |           |             |
   /           o             o

 ------------------------------------------------|
   E  E  E  E  E  E  E  E    E  E  E  E  E  E  E  E
|-------------------------|-------------------------|
|-10-10-10-10-10-10-10-10-|-10-10-10-10-10-10-10-10-|
|-------------------------|-------------------------|
|-------------------------|-------------------------|
|-------------------------|-------------------------|
|-------------------------|-------------------------|


                            A                                     B
  +W                         W                        +H           H
   |                         |                         |           |
   /                         o                         /           o

   PM----------------------------------------------------------------------|
   E  E  E  E  E  E  E  E    E  E  E  E  E  E  E  E    E  E  E  E  E  E  E  E
|-------------------------|-------------------------|-------------------------|
|-10-10-10-10-10-10-10-10-|-10-10-10-10-10-10-10-10-|-10-10-10-10-10-10-10-10-|
|-------------------------|-------------------------|-------------------------|
|-------------------------|-------------------------|-------------------------|
|-------------------------|-------------------------|-------------------------|
|-------------------------|-------------------------|-------------------------|


  F#                                                  A
   W                        +W                         W
   |                         |                         |
   o                         /                         o

   PM                                                  PM------------------|
   E  E  E  E  E  E  E  E    E  E  E  E  E  E  E  E    E  E  E  E  E  E  E  E
|-------------------------|-------12----12----12----|-------------------------|
|-10-10-10-10-10-10-10-10-|-10-10----10----10----10-|-10-10-10-10-10-10-10-10-|
|-------------------------|-------------------------|-------------------------|
|-------------------------|-------------------------|-------------------------|
|-------------------------|-------------------------|-------------------------|
|-------------------------|-------------------------|-------------------------|


           B           F#
  +H       H            W                        +W
   |       |            |                         |
   /       o            o                         /

   PM--------------------------------------------|
   E E E E E  E  E E    E  E  E  E  E  E  E  E    E  E  E  E  E  E  E  E
|--------------------|-------------------------|-------12----12----12----|
|-10-9-9-9-9-12-12-9-|-10-10-10-10-10-10-10-10-|-10-10----10----10----10-|
|--------------------|-------------------------|-------------------------|
|--------------------|-------------------------|-------------------------|
|--------------------|-------------------------|-------------------------|
|--------------------|-------------------------|-------------------------|


  A                                       B
   W                           +H           H
   |                            |           |
   o                            /           o

  Gtr II
   PM----------------------------------------------------
   E  E  E  E   E   E   E  E    E E  E  E   E   E   E E
|----------------------------|--------------------------|
|-10-10-10-10--10--10--10-10-|-10-9--9--9---9--12--12-9-|
|----------------------------|--------------------------|
|----------------------------|--------------------------|
|----------------------------|--------------------------|
|----------------------------|--------------------------|
|
| Gtr VI
|  Q     E  E  +E   Q.          Q    E  E  +E   Q.
|----------------------------|--------------------------|
|----------------------------|--------------------------|
|----------------------------|--------------------------|
|-11----12-11-(11)--9--------|-11---12-11-(11)--9\------|
|----------------------------|--------------------------|
|----------------------------|--------------------------|


  F#
   W                          +W
   |                           |
   o                           /

 -----------------------------|
   E   E  E  E  E   E  E  E    E   E   E  E  E   E  E  E
|---------------------------|---------12----12-----12-----||
|-10--10-10-10-10--10-10-10-|-10--10-----10-----10----10--||
|---------------------------|-----------------------------||
|---------------------------|-----------------------------||
|---------------------------|-----------------------------||
|---------------------------|-----------------------------||
|
|  Q.        E +Q      Q      +E   Q.       +H
|---------------------------|------0--------(0)-----------||
|---------------------------|-----------------------------||
|---------------------------|-----------------------------||
|--2---------2-(2)-----4----|-(4)-------------------------||
|---------------------------|-----------------------------||
|---------------------------|-----------------------------||


  A                                       B
   W                           +H           H
   |                            |           |
   o                            /           o

   PM----------------------------------------------------
   E  E  E  E   E   E   E  E    E E  E  E   E   E   E E
|----------------------------|--------------------------|
|-10-10-10-10--10--10--10-10-|-10-9--9--9---9--12--12-9-|
|----------------------------|--------------------------|
|----------------------------|--------------------------|
|----------------------------|--------------------------|
|----------------------------|--------------------------|
|
|  Q     E  E  +E   Q.          Q    E  E  +E   Q.
|----------------------------|--------------------------|
|----------------------------|--------------------------|
|----------------------------|--------------------------|
|-11----12-11-(11)--9--------|-11---12-11-(11)--9\------|
|----------------------------|--------------------------|
|----------------------------|--------------------------|


  F#
   W                          +W
   |                           |
   o                           /

 -----------------------------|
   E   E  E  E  E   E  E  E    E   E   E  E  E   E  E  E
|---------------------------|---------12----12-----12-----|
|-10--10-10-10-10--10-10-10-|-10--10-----10-----10----10--|
|---------------------------|-----------------------------|
|---------------------------|-----------------------------|
|---------------------------|-----------------------------|
|---------------------------|-----------------------------|
|
|  Q.        E +Q      Q      +E   Q.       +H
|---------------------------|------0--------(0)-----------|
|---------------------------|-----------------------------|
|---------------------------|-----------------------------|
|--2---------2-(2)-----4----|-(4)-------------------------|
|---------------------------|-----------------------------|
|---------------------------|-----------------------------|


 Pre-Chorus
  Cadd9
  Gtr IV
   Q.      E  +Q     Q      +E   Q.      Q    Q
|-10---------------------|------------------------|
|---------13-(13)---12---|-(12)-13------12---10---|
|------------------------|------------------------|
|------------------------|------------------------|
|------------------------|------------------------|
|------------------------|------------------------|
|
| Gtr VI
|  E  E E  E   E  E  E E     E   E  E E  E E  E E
|----------0-------------|------------0-----------|
|-------3------3-----3---|----------3----3----3---|
|-----0-----------0----0-|-------0---------0----0-|
|------------------------|------------------------|
|--3---------------------|---3--------------------|
|------------------------|------------------------|


  Dsus2
   Q.      E  +Q     Q      +E   Q.      Q   Q
|------------------------|------------------------|
|-12------10-(10)--------|------------------------|
|-------------------12---|-(12)-11------11---9----|
|------------------------|------------------------|
|------------------------|------------------------|
|------------------------|------------------------|
|
|  E  E E  E   E  E  E E     E   E  E E  E E E E
|----------0---0--0--0-0-|------------0--0-0-0-0--|
|-------3------3--3--3-3-|----------3----3-3-3-3--|
|-----2--------2--2--2-2-|-------2-------2-2-2-2--|
|--0-----------0--0--0-0-|---0-----------0-0-0-0--|
|------------------------|------------------------|
|------------------------|------------------------|


  Cadd9
   Q.      E  +Q     Q      +E   Q.      Q    Q
|-10---------------------|------------------------|
|---------13-(13)---12---|-(12)-13------12---10---|
|------------------------|------------------------|
|------------------------|------------------------|
|------------------------|------------------------|
|------------------------|------------------------|
|
|  E  E E  E   E  E  E E     E   E  E E  E E  E E
|----------0-------------|------------0-----------|
|-------3------3-----3---|----------3----3----3---|
|-----0-----------0----0-|-------0---------0----0-|
|------------------------|------------------------|
|--3---------------------|---3--------------------|
|------------------------|------------------------|


  Dsus2
   Q.      E  +Q     Q      +E   Q.      +H
|------------------------|--------------------------|
|-12------10-(10)--------|--------------------------|
|-------------------12---|-(12)-11------(11)--------|
|------------------------|--------------------------|
|------------------------|--------------------------|
|------------------------|--------------------------|
|
|  E  E E  E   E  E  E E     E   E  E E   E  E E E
|----------0---0--0--0-0-|------------0---0--0-0-0--|
|-------3------3--3--3-3-|----------3-----3--3-3-3--|
|-----2--------2--2--2-2-|-------2--------2--2-2-2--|
|--0-----------0--0--0-0-|---0------------0--0-0-0--|
|------------------------|--------------------------|
|------------------------|--------------------------|


 Chorus
  E           F#            G#          A
  Gtrs I, II
   E  E  E  E  E  E  E  E    E  E  E  E  E  E  E  E
|-12-12-12-12-12-12-12-12-|-12-12-12-12-12-12-12-12-|
|-12-12-12-10-12-12-12-10-|-12-12-12-10-12-12-12-10-|
|-------------------------|-------------------------|
|-------------------------|-------------------------|
|-------------------------|-------------------------|
|-------------------------|-------------------------|


  D           E             F#          D
   E  E  E  E  E  E  E  E    E  E  E  E  E  E  E  E
|-10-10-10-10-12-12-12-12-|-14-14-14-14-10-10-10-10--|
|-10-10-10-10-10-10-10-10-|-10-10-10-10-10-10-10-10--|
|-------------------------|--------------------------|
|-------------------------|--------------------------|
|-------------------------|--------------------------|
|-------------------------|--------------------------|


  E           F#            G#          A
   E  E  E  E  E  E  E  E    E  E  E  E  E  E  E  E
|-12-12-12-12-12-12-12-12-|-12-12-12-12-12-12-12-12-|
|-12-12-12-10-12-12-12-10-|-12-12-12-10-12-12-12-10-|
|-------------------------|-------------------------|
|-------------------------|-------------------------|
|-------------------------|-------------------------|
|-------------------------|-------------------------|


  D           E             F#          D
   E  E  E  E  E  E  E  E    E  E  E  E  E  E  E  E
|-10-10-10-10-12-12-12-12-|-14-14-14-14-10-10-10-10--|
|-10-10-10-10-10-10-10-10-|-10-10-10-10-10-10-10-10--|
|-------------------------|--------------------------|
|-------------------------|--------------------------|
|-------------------------|--------------------------|
|-------------------------|--------------------------|


  E           F#            G#          A
   E  E  E  E  E  E  E  E    E  E  E  E  E  E  E  E
|-12-12-12-12-12-12-12-12-|-12-12-12-12-12-12-12-12-|
|-12-12-12-10-12-12-12-10-|-12-12-12-10-12-12-12-10-|
|-------------------------|-------------------------|
|-------------------------|-------------------------|
|-------------------------|-------------------------|
|-------------------------|-------------------------|


  D           E             F#          D
   E  E  E  E  E  E  E  E    E  E  E  E  E  E  E  E
|-10-10-10-10-12-12-12-12-|-14-14-14-14-10-10-10-10--|
|-10-10-10-10-10-10-10-10-|-10-10-10-10-10-10-10-10--|
|-------------------------|--------------------------|
|-------------------------|--------------------------|
|-------------------------|--------------------------|
|-------------------------|--------------------------|


  A                                       B
  Gtr IV
   W                            +H         H
   |                             |         |
   o                             /         o

  Gtr V
   TP        TP  TP              TP        TP     TP
   Q.        E  +H              +H         Q      Q
|----------------------------|------------------------|
|-15--------14-(14)----------|-(14)-------10-----12---|
|----------------------------|------------------------|
|----------------------------|------------------------|
|----------------------------|------------------------|
|----------------------------|------------------------|
|
| Gtr I
|  Q.        E  +H              +H         Q      Q
|----------------------------|------------------------|
|-15--------14-(14)----------|-(14)-------10/----12---|
|----------------------------|------------------------|
|----------------------------|------------------------|
|----------------------------|------------------------|
|----------------------------|------------------------|
|
| Gtr II
|  PM--------------------------------------------------
|  E   E  E  E   E   E  E  E     E  E E E  E   E  E E
|----------------------------|------------------------|
|-10--10-10-10--10--10-10-10-|--10--9-9-9--9--12-12-9-|
|----------------------------|------------------------|
|----------------------------|------------------------|
|----------------------------|------------------------|
|----------------------------|------------------------|


  F#
   W                             +W
   |                              |
   o                              /

   TP        TP  TP      TP       TP           TP     TP
   Q.        E  +Q       Q       +H            Q      Q
|-----------------------------|-----------------------------|
|-15--------14-(14)-----10----|-(10)----------10-----12-----|
|-----------------------------|-----------------------------|
|-----------------------------|-----------------------------|
|-----------------------------|-----------------------------|
|-----------------------------|-----------------------------|
|
|  Q.        E  +Q       Q       +H            Q      Q
|-----------------------------|-----------------------------|
|-15\-------14-(14)\----10----|-(10)----------10/----12-----|
|-----------------------------|-----------------------------|
|-----------------------------|-----------------------------|
|-----------------------------|-----------------------------|
|-----------------------------|-----------------------------|
|
|-------------------------------|
|  E   E  E  E   E    E  E  E     E   E  E  E  E   E  E  E
|-----------------------------|---------12----12-----12-----|
|-10--10-10-10--10---10-10-10-|--10--10----10-----10----10--|
|-----------------------------|-----------------------------|
|-----------------------------|-----------------------------|
|-----------------------------|-----------------------------|
|-----------------------------|-----------------------------|


  A                                       B
   W                            +H         H
   |                             |         |
   o                             /         o

   TP        TP  TP              TP        TP
   Q.        E  +H              +H         H
|----------------------------|------------------------|
|-15--------14-(14)----------|-(14)-------12----------|
|----------------------------|------------------------|
|----------------------------|------------------------|
|----------------------------|------------------------|
|----------------------------|------------------------|
|
|  Q.        E  +H              +H         H
|----------------------------|------------------------|
|-15--------14-(14)----------|-(14)-------12\---------|
|----------------------------|------------------------|
|----------------------------|------------------------|
|----------------------------|------------------------|
|----------------------------|------------------------|
|
|  PM--------------------------------------------------
|  E   E  E  E   E   E  E  E     E  E E E  E   E  E E
|----------------------------|------------------------|
|-10--10-10-10--10--10-10-10-|--10--9-9-9--9--12-12-9-|
|----------------------------|------------------------|
|----------------------------|------------------------|
|----------------------------|------------------------|
|----------------------------|------------------------|


                           1.                           2.
  F#                                                     F#
   W                        +W                           +W
   |                         |                            |
   o                         /                            /

   TP                        TP           TP    TP        TP
   W                        +H            Q     Q         W
|-------------------------|---------------------------||---------------------|
|--7----------------------|-(7)----------10----12----o||--7------------------|
|-------------------------|---------------------------||---------------------|
|-------------------------|---------------------------||---------------------|
|-------------------------|--------------------------o||---------------------|
|-------------------------|---------------------------||---------------------|
|
|  W                        +W                           +H     a   Q  a  Q
|-------------------------|---------------------------||---------------------|
|--7----------------------|-(7)----------------------o||-(7)-----------------|
|-------------------------|---------------------------||---------------------|
|-------------------------|---------------------------||--------9/-14--6/-7--|
|-------------------------|--------------------------o||---------------------|
|-------------------------|---------------------------||--------7/-12--4/-5--|
|
|---------------------------|
|  E  E  E  E  E  E  E  E    E   E  E  E  E  E  E  E      W
|-------------------------|--------12----12----12-----||---------------------|
|-10-10-10-10-10-10-10-10-|-10--10----10----10----10-o||---------------------|
|-------------------------|---------------------------||---------------------|
|-------------------------|---------------------------||---------------------|
|-------------------------|--------------------------o||---------------------|
|-------------------------|---------------------------||---------------------|


 Bridge
  B
  Gtr IV
  a   W          +H      a   Q  a  Q    a   W          +H      a   Q  a  Q
|--------------|----------------------|--------------|------------------------|
|--------------|----------------------|--------------|------------------------|
|--------------|----------------------|--------------|------------------------|
|-7/--9--------|-(9)\----9/-14--6/-7--|-7/--9--------|-(9)\----9/-14--6/-7----|
|--------------|----------------------|--------------|------------------------|
|-5/--7--------|-(7)\----7/-12--4/-5--|-5/--7--------|-(7)\----7/-12--4/-5----|
|
| Gtr II
|     W           H          H              W           H          H
|----11--------|-11\------------------|----11--------|-11\--------------------|
|----12--------|-12\------------------|----12--------|-12\--------------------|
|----11--------|-11\------------------|----11--------|-11\--------------------|
|--------------|----------------------|--------------|------------------------|
|--------------|----------------------|--------------|------------------------|
|--------------|----------------------|--------------|------------------------|


  Gtr IV
  a   W          +H      a   Q  a  Q    a   W          +W
|--------------|----------------------|--------------|--------------|
|--------------|----------------------|--------------|--------------|
|--------------|----------------------|--------------|--------------|
|-7/--9--------|-(9)\----9/-14--6/-7--|-7/--9--------|-(9)\---------|
|--------------|----------------------|--------------|--------------|
|-5/--7--------|-(7)\----7/-12--4/-5--|-5/--7--------|-(7)\---------|
|
|     W           H          H              W           H      H
|----11--------|-11\------------------|----11--------|-11\----------|
|----12--------|-12\------------------|----12--------|-12\----------|
|----11--------|-11\------------------|----11--------|-11\----------|
|--------------|----------------------|--------------|--------------|
|--------------|----------------------|--------------|--------------|
|--------------|----------------------|--------------|--------------|


   Chorus
    E           F#            G#          A
    Gtrs I, II
     E  E  E  E  E  E  E  E    E  E  E  E  E  E  E  E
||--12-12-12-12-12-12-12-12-|-12-12-12-12-12-12-12-12-|
||o-12-12-12-10-12-12-12-10-|-12-12-12-10-12-12-12-10-|
||--------------------------|-------------------------|
||--------------------------|-------------------------|
||o-------------------------|-------------------------|
||--------------------------|-------------------------|


                           1.,2.,3.
  D           E             F#          D
   E  E  E  E  E  E  E  E    E  E  E  E  E  E  E  E  4x
|-10-10-10-10-12-12-12-12-|-14-14-14-14-10-10-10-10--||
|-10-10-10-10-10-10-10-10-|-10-10-10-10-10-10-10-10-o||
|-------------------------|--------------------------||
|-------------------------|--------------------------||
|-------------------------|-------------------------o||
|-------------------------|--------------------------||


                             Verse
  4.
  F#          D               A                                       B
                              Gtr IV
   W                           W                            +H         H
                               |                             |         |
                               o                             /         o

                              Gtr V
                               TP        TP  TP              TP        TP     TP
   E  E  E  E  E  E  E  E      Q.        E  +H              +H         Q      Q
|-14-14-14-14-10-10-10-10-||-----------------------------|------------------------|
|-10-10-10-10-10-10-10-10-||o-15--------14-(14)----------|-(14)-------10-----12---|
|-------------------------||-----------------------------|------------------------|
|-------------------------||-----------------------------|------------------------|
|-------------------------||o----------------------------|------------------------|
|-------------------------||-----------------------------|------------------------|
|
| Gtr I
|  W                           Q.        E  +H              +H         Q      Q
|-------------------------||-----------------------------|------------------------|
|-------------------------||o-15--------14-(14)----------|-(14)-------10/----12---|
|-------------------------||-----------------------------|------------------------|
|-------------------------||-----------------------------|------------------------|
|-------------------------||o----------------------------|------------------------|
|-------------------------||-----------------------------|------------------------|
|
| Gtr II
|                              PM--------------------------------------------------
|  W                           E   E  E  E   E   E  E  E     E  E E E  E   E  E E
|-------------------------||-----------------------------|------------------------|
|-------------------------||o-10--10-10-10--10--10-10-10-|--10--9-9-9--9--12-12-9-|
|-------------------------||-----------------------------|------------------------|
|-------------------------||-----------------------------|------------------------|
|-------------------------||o----------------------------|------------------------|
|-------------------------||-----------------------------|------------------------|


  F#
   W                             +W
   |                              |
   o                              /

   TP        TP  TP      TP       TP           TP     TP
   Q.        E  +Q       Q       +H            Q      Q
|-----------------------------|-------------------------------||
|-15--------14-(14)-----10----|-(10)----------10-----12------o||
|-----------------------------|-------------------------------||
|-----------------------------|-------------------------------||
|-----------------------------|------------------------------o||
|-----------------------------|-------------------------------||
|
|  Q.        E  +Q       Q       +H            Q      Q
|-----------------------------|-------------------------------||
|-15\-------14-(14)\----10----|-(10)----------10/----12------o||
|-----------------------------|-------------------------------||
|-----------------------------|-------------------------------||
|-----------------------------|------------------------------o||
|-----------------------------|-------------------------------||
|
|-------------------------------|
|  E   E  E  E   E    E  E  E     E   E  E  E  E   E  E  E
|-----------------------------|---------12----12-----12-------||
|-10--10-10-10--10---10-10-10-|--10--10----10-----10----10---o||
|-----------------------------|-------------------------------||
|-----------------------------|-------------------------------||
|-----------------------------|------------------------------o||
|-----------------------------|-------------------------------||


  A                                       B
   W                            +H         H
   |                             |         |
   o                             /         o

   TP        TP  TP              TP        TP
   Q.        E  +H              +H         H
|----------------------------|------------------------|
|-15--------14-(14)----------|-(14)-------12----------|
|----------------------------|------------------------|
|----------------------------|------------------------|
|----------------------------|------------------------|
|----------------------------|------------------------|
|
|  Q.        E  +H              +H         H
|----------------------------|------------------------|
|-15--------14-(14)----------|-(14)-------12\---------|
|----------------------------|------------------------|
|----------------------------|------------------------|
|----------------------------|------------------------|
|----------------------------|------------------------|
|
|  PM--------------------------------------------------
|  E   E  E  E   E   E  E  E     E  E E E  E   E  E E
|----------------------------|------------------------|
|-10--10-10-10--10--10-10-10-|--10--9-9-9--9--12-12-9-|
|----------------------------|------------------------|
|----------------------------|------------------------|
|----------------------------|------------------------|
|----------------------------|------------------------|


  F#
   W                        +W
   |                         |
   o                         /

   TP                        TP           TP    TP
   W                        +H            Q     Q
|-------------------------|---------------------------||
|--7----------------------|-(7)----------10----12-----||
|-------------------------|---------------------------||
|-------------------------|---------------------------||
|-------------------------|---------------------------||
|-------------------------|---------------------------||
|
|  W                        +W
|-------------------------|---------------------------||
|--7----------------------|-(7)-----------------------||
|-------------------------|---------------------------||
|-------------------------|---------------------------||
|-------------------------|---------------------------||
|-------------------------|---------------------------||
|
|---------------------------|
|  E  E  E  E  E  E  E  E    E   E  E  E  E  E  E  E
|-------------------------|--------12----12----12-----||
|-10-10-10-10-10-10-10-10-|-10--10----10----10----10--||
|-------------------------|---------------------------||
|-------------------------|---------------------------||
|-------------------------|---------------------------||
|-------------------------|---------------------------||


   Outro
    A                                     B
    Gtr III
     H           H             H           H
||---7-----------5----------|--4-----------2----------|
||o-------------------------|-------------------------|
||--------------------------|-------------------------|
||--------------------------|-------------------------|
||o-------------------------|-------------------------|
||--------------------------|-------------------------|
|
|   Gtr II
|    E  E  E  E  E  E  E  E    E  E  E  E  E  E  E  E
||--------------------------|-------------------------|
||o-12-10-12-10-12-10-12-10-|-12-10-12-10-12-10-12-10-|
||--------------------------|-------------------------|
||--------------------------|-------------------------|
||o-------------------------|-------------------------|
||--------------------------|-------------------------|


                           1.,2.
  D                                     E
   H           H             H           H           3x
|--5-----------4----------|--2-----------0-----------||
|-------------------------|-------------------------o||
|-------------------------|--------------------------||
|-------------------------|--------------------------||
|-------------------------|-------------------------o||
|-------------------------|--------------------------||
|
|  E  E  E  E  E  E  E  E    E  E  E  E  E  E  E  E  3x
|-------------------------|--------------------------||
|-12-10-12-10-12-10-12-10-|-12-10-12-10-12-10-12-10-o||
|-------------------------|--------------------------||
|-------------------------|--------------------------||
|-------------------------|-------------------------o||
|-------------------------|--------------------------||


  3.
              E             A
   H           H             H           H             H           H
|--2-----------0----------|--7-----------5----------|--4-----------2----------|
|-------------------------|-------------------------|-------------------------|
|-------------------------|-------------------------|-------------------------|
|-------------------------|-------------------------|-------------------------|
|-------------------------|-------------------------|-------------------------|
|-------------------------|-------------------------|-------------------------|
|
|  E  E  E  E  E  E  E  E    E  E  E  E  E  E  E  E    E  E  E  E  E  E  E  E
|-------------------------|-------------------------|-------------------------|
|-12-10-12-10-12-10-12-10-|-12-10-12-10-12-10-12-10-|-12-10-12-10-12-10-12-10-|
|-------------------------|-------------------------|-------------------------|
|-------------------------|-------------------------|-------------------------|
|-------------------------|-------------------------|-------------------------|
|-------------------------|-------------------------|-------------------------|


   H           H             H           H
|--5-----------4----------|--2-----------0------------|
|-------------------------|---------------------------|
|-------------------------|---------------------------|
|-------------------------|---------------------------|
|-------------------------|---------------------------|
|-------------------------|---------------------------|
|
|  E  E  E  E  E  E  E  E    E  E  E  E  E  E  E  E
|-------------------------|---------------------------|
|-12-10-12-10-12-10-12-10-|-12-10-12-10-12-10-12-10---|
|-------------------------|---------------------------|
|-------------------------|---------------------------|
|-------------------------|---------------------------|
|-------------------------|---------------------------|


   H           H             H           H
|--7-----------5----------|--4-----------2----------|
|-------------------------|-------------------------|
|-------------------------|-------------------------|
|-------------------------|-------------------------|
|-------------------------|-------------------------|
|-------------------------|-------------------------|
|
|  E  E  E  E  E  E  E  E    E  E  E  E  E  E  E  E
|-------------------------|-------------------------|
|-12-10-12-10-12-10-12-10-|-12-10-12-10-12-10-12-10-|
|-------------------------|-------------------------|
|-------------------------|-------------------------|
|-------------------------|-------------------------|
|-------------------------|-------------------------|


  H    H      H    H      +W
|-5----4----|-2----0----|-(0)----*|
|-----------|-----------|--------*|
|-----------|-----------|--------*|
|-----------|-----------|--------*|
|-----------|-----------|--------*|
|-----------|-----------|--------*|
|
| W           W            W
|-----------|-----------|--------*|
|-----------|-----------|--------*|
|-----------|-----------|--------*|
|-----------|-----------|--------*|
|-----------|-----------|--------*|
|-----------|-----------|--------*|


            
            
Suggest correction
Creating personal tab
Creating personal tab
You can edit any tab online and save it as your Personal.

You can edit, replace or remove any tab part or add personal notes – all changes will be seen only by you.

Personal tabs can be accessed anytime from any device, even offline.
Learn more »
Give kudos to tab author, rate the tab!
1 2 3 4 5
comments
print report bad tab
guest
You may want to rate the tab now too:
select rating
Wanna post a correction for this tab? Suggest correction