Oops, an error
Loading. Please wait.

Electric Co Tab

version 2
version 2

Whole song

Interactive

by U2
12,212 views 9 this week
2 commentsread comments
1 2 3 4 5
excellent!
x 6
add to favorites
launch autoscroll
font size
0
reset
how to read this tab
guitar tuner
Tab Pro tools
  • play this tab
  • loop segment
  • change instrument
  • show fretboard
  • metronome
×
Best way to learn
"Electric Co"
Autoscroll
slow
fast
+/-
esc
set tempo
stop
Contributor
e|----------------|-----------------|-----------------|-----------------|
B|----------------|-----------------|-----------------|-----------------|
G|2-----5-----4---|---9----11---7---|-2-----5-----4---|---12--14--11----|
D|0-0-0-0-0-0-0-0-|-0-0-0-0-0-0-0-0-|-0-0-0-0-0-0-0-0-|-0-0-0-0-0-0-0-0-|
A|----------------|-----------------|-----------------|-----------------|
E|----------------|-----------------|-----------------|-----------------|

e|----------------|-----------------|-----------------|-------3---------|
B|----------------|-----------------|-----------------|-------3---------|
G|2-----5-----4---|---7-----9---7---|-2-----5-----4---|-------4---------|
D|0-0-0-0-0-0-0-0-|-0-0-0-0-0-0-0-0-|-0-0-0-0-0-0-0---|-------5---------|
A|----------------|-----------------|-----------------|-------5---------|
E|----------------|-----------------|-----------------|-------3---------|

e|--3------3---------2---3----2--------0---2-----0--------3-------3-----|
B|--3------3---------3---3----3--------3---3-----3--------3-------3-----|
G|--4------4---------2---2----2--------2---2-----2--------0-------0-----|
D|--5------5---------0---0----0--------0---0-----0--------0-------0-----|
A|--5------5------------------------------------------------------------|
E|--3------3------------------------------------------------------------|

e|--2---3---2---------2-------2--------2---x--x--x--3-|
B|--3---3---3---------3-------3--------3---x--x--x--3-|
G|--2---2---2---------2-------2--------2---x--x--x--2-|
D|--0---0---0---------0-------0--------0---x--x--x--0-|
A|----------------------------------------------------|
E|----------------------------------------------------|

e|--2--x--x--x--0----2--x--x--x--3-----2--x--x--x--0-----2--x--2--2--3--|
B|--3--x--x--x--3----3--x--x--x--3-----3--x--x--x--3-----3--x--3--3--3--|
G|--2--x--x--x--2----2--x--x--x--2-----2--x--x--x--2-----2--x--2--2--2--|
D|--0--x--x--x--0----0--x--x--x--0-----0--x--x--x--0-----0--x--0--0--0--|
A|----------------------------------------------------------------------|
E|----------------------------------------------------------------------|

                                                        Boy            

e|--2------x--2--0--0------------------15---------|
B|--3------x--3--3--3----------------------15-----|
G|--2------x--2--2--2----------12--12-------------|
D|--0------x--0--0--0-----------------------------|
A|------------------------------------------------|
E|------------------------------------------------|

 Stupid boy             Don't sit at the table


e|--------14-------2-----x--2--2---3------2-----x--2--0--0------------15-----|
B|------------13---3-----x--3--3---3------3-----x--3--3--3----------------15-|
G|-11--11----------2-----x--2--2---2------2-----x--2--2--2-----12--12--------|
D|-----------------0-----x--0--0---0------0-----x--0--0--0-------------------|
A|---------------------------------------------------------------------------|
E|---------------------------------------------------------------------------|

 until your able to        toy            broken    toy      You shout and shout


                CHORUS: 

e|--------14--------x---------8--------0---------------------2---3---2--0--2-|
B|------------13----x---------8--------0---------------------3---3---3--3--3-|
G|-11--11-----------x---------9--------9---------------------2---2---2--2--3-|
D|------------------x--------10-------10---------------------0---0---0--0--0-|
A|------------------x--------10-------10-------------------------------------|
E|------------------x---------8--------8-------------------------------------|

 You're inside out If you don't know                         The electric Co.

                                           


e|--------------8-------------0------------0-------------2--3--2--0--2---|
B|--------------8-------------0------------0-------------3--3--3--3--3---|
G|--------------9-------------9------------9-------------2--2--2--2--2---|
D|-------------10------------10-----------10-------------0--0--0--0--0---|
A|-------------10------------10-----------10-----------------------------|
E|--------------8-------------8------------8-----------------------------|

 If you don't know                                    The electric Co.





e|----------15----------------14------|
B|-------------15-----------------13--|
G|--12--12------------11--11----------|  Play this several times,
D|------------------------------------|
A|------------------------------------|           then
E|------------------------------------|



e|--15-------14---------15-------14--------------15-15-15-15----|
B|------15-------13---------15-------13----Getting---faster-----|
G|--------------------------------------------------------------| 
D|--------------------------------------------------------------|
A|--------------------------------------------------------------|
E|--------------------------------------------------------------|


Finally the outro:

e|--2----2--2--2--2-2--3-3--3-3---7--5--|
B|--3----3--3--3--3-3--3-3--3-3---7--5--|
G|--2----2--2--2--2-2--0-0--0-0---0--0--|
D|--0----0--0--0--0-0--0-0--0-0---------|
A|--------------------------------------|
E|--------------------------------------|
comments
print report bad tab
2 comments total.
0 reply
timmy3125 wrote on September 2 2006, 11:24 am

bravo, good tab. :) The 1st version is pretty much just crap, but this one helps a lot so thanks a bunch dude. take it easy,
-timmy

0 reply
blackseptember wrote on April 4 2007, 03:34 am

Hey this is an awesome tab. Do you know where I could find Cry tabs?

I want to post or [tab]
guest
You may want to rate the tab now too:
select rating
Please do not post tabs as comments. Select "correction" instead!