Oops, an error
Loading. Please wait.

Electrical Storm Chords

version 1
version 1

Whole song

Interactive

by U2
44,206 views 18 this week
4 commentsread comments
1 2 3 4 5
x 9
add to favorites
launch autoscroll
font size
0
reset
transpose
0
reset
display chords
guitar tuner
Autoscroll
slow
fast
+/-
esc
set tempo
stop
Help us to improve Ultimate-Guitar.com Take our survey!
×
Author
ELECTRICAL STORM tabbed by Quynh Lam

INTRO

----------------------|----------------------|---------|
--/12-10---7---7---7--|-/12-10---7---7---7---|--/12-10-|
---------9---9---9----|---------9---9---9----|---------|
----------------------|----------------------|---------|
----------------------|----------------------|---------|
----------------------|----------------------|---------|

or there is an alternate way...

------------------------|-------------------------|         
--/12-10--5-7--5-7--5-7-|--/12-10--5-7--5-7--5-7--|
------------------------|-------------------------|
------------------------|-------------------------|
------------------------|-------------------------|
------------------------|-------------------------|

CHORUS 1
A 		E 			  C#m
Your in my mind, all of the time.
		    A	
I know that's not enough.
A				 E
Well if the sky can't crack 
				 C#m
There must be someway back. 
		   A
For love and only love.

F#m E  F#m     E   
       Electrical storm

F#m E  F#m     E   
       Electrical storm

F#m E  F#m     E   
       Electrical storm

CHORD RIFF-(in rhythm slashes)
F#       A       B         A
/ /     / / /    / / / /   / / /// 
Play the this in verse 1 and Lets see colours... 

Sequence after the first chorus
-----9------9---------7------7------       Repeat through 
---7------7---------7------7------7- <----- out 2nd verse
-9------9----9--8/9-----9------9----         and Let see 			
                        		colours... etc.

CHORUS 2
A 		E 	     C#m
Your in my mind, all of the time.
	       B    A	
I know that's not enough.
A			E
Well if the sky can't crack 
			 C#m
There must be someway back. 
		   A
For love and only love.

F#m E  F#m     E   
       Electrical storm

F#m E  F#m     E   
       Electrical storm

F#m E  F#m     E   
       Electrical storm
(2nd time chorus)
Baby don't cry

----------------------|-------------------
--/12-10---7---7---7--|--/12-10--9-10-9-7-
---------9---9---9----|-------------------
----------------------|-------------------
----------------------|-------------------
----------------------|-------------------

Verse 1
F#  A		    B       A          F#
   The sea it swells like a sore head
A				B    A
And the night, it is aching
F#  A		    B     	  A	      F#
   Two lovers lie with no sheets on their bed
 A 			    B    A
And the day, it is breaking

F# A	    B        A       	  F#
  On rainy days we'd go swimming out
A	  B      A                 F#
On rainy days, swimming in the sound
A         B                    
On rainy days we'd go swimming out

Play Chorus 1

Verse 2
Car alarm
Won't wrench him back to sleep(???)
You kept awake
Dreaming someone else's dream
Coffee is cold
But it'll get you through
Compromise
That's nothing new to you
Let's see colors that have never been seen
Let's go to places no one else has been

Play Chorus 2

Verse 3
It's hot as hell, honey, in this room
Sure hope the weather will break soon
The air is heavy, heavy as a truck
Hope the rain will wash away our bad luck
The sky can crack
There must be some way back
For love and only love
Electrical storm
Electrical storm
Electrical storm
Baby don't cry
Baby don't cry
Oh baby don't cry
Oh baby don't cry



Chord formations
F#/F#m-244XXX --Playing this sounds better
A- x02220 or 577655
B- x24442
E- 022100

Corrections or questions email me: rickmanic@fsmail.net
Suggest correction
comments
print report bad tab
4 comments total. Showing first comments.
0 reply
Jamie93 10 Oct 08, 2005 01:41 PM

great! Just one thing, it is "two lovers lie, with no cheats, on their bed!"

0 reply
Bonomania 10 Jun 16, 2006 04:22 PM

Nope definitely sheets...ur talkin to the biggest U2 fan ever here!
The tab is cool, but the sorta pre chorus bit is hard to play...it's better using the sequence D E A C#m D

0 reply
punkgirl91 61 Feb 24, 2007 06:05 PM

thanx 4 this tab, it rocks,5 stars

guest
You may want to rate the tab now too:
select rating
Wanna post a correction for this tab? Suggest correction