Oops, an error
Loading. Please wait.

Electrical Storm tab

version 1
version 1

Whole song

Interactive

by U2
30,301 views 24 this week
1 commentread comment
1 2 3 4 5
x 10
add to favorites
×
Save as Personal and add changes to this tab that will be seen only by you. Learn more ›
×
You can save this tab as Personal to edit and correct it or add notes. All changes will be seen only by you. Learn more »
launch autoscroll
font size
0
reset
how to read this tab
guitar tuner
backing track
0:00
0:00
edit
Autoscroll
slow
fast
+/-
esc
set tempo
stop
Author
Unregistered
ELECTRICAL STORM (SINGLE MIX)
Musica Por U2
Tablatura Por Kliffoard Evans (kliffoard@hotmail.com)

[Intro] F#m / A / E / B

e|-------------------------|
B|-/12-10---5-7--5h7p5h7---|
G|-------------------------|  X3
D|-------------------------|
A|-------------------------|
E|-------------------------|

[Verse] F#m / A / E / B

e|-----9-----9---------7-----7-------|
B|---7-----7-----7---7-----7-----7---|
G|-9-----9-----9---9-----9-----9-----|
D|-----------------------------------|
A|-----------------------------------|
E|-----------------------------------|

The sea it swells like a sore head
and the night it is aching
Two lovers lie with no sheets on their bed
and the day it is breaking

On rainy days we go swimming out
on rainy days, swimming in the sound
On rainy days we go swimming out

[Pre-Chorus] (Con Distorcion)
D5           E5              A5
You're in my mind all of the time
C#5           D5
I know that's not enough
D5                   E5
if the sky can crack
           A5
there must be some way back
C#5          D5
for love and only love

[2nd Verse] F#m / F#m / A / B

e|-----9-----9---------7-----7-------|
B|---7-----7-----7---7-----7-----7---|
G|-9-----9-----9---9-----9-----9-----|
D|-----------------------------------|
A|-----------------------------------|
E|-----------------------------------|

Car alarm won't let you back to sleep
you're kept awake dreaming some else's dream
coffee is cold, but it will get you through
compromise, that's nothing new to you
let's see colours that have never been seen
let's go to places no one else has been

[Pre-Chorus] (Con Distorcion)
D5           E5              A5
You're in my mind all of the time
C#5           D5
I know that's not enough
D5                   E5
if the sky can crack
           A5
there must be some way back
C#5          D5
for love and only love

[Chorus]
D / E
F#m / A
Electrical Storm
D / E
F#m / A
Electrical Storm
D / E
F#m / A
Electrical Storm
B
Baby don't cry

[Intro] F#m / A / E / B (2x)

e|----------------------------------------------|
B|-/12-10---5-7--5h7p5h7---/12-10---9h10-9-7~---|
G|----------------------------------------------|
D|----------------------------------------------|
A|----------------------------------------------|
E|----------------------------------------------|

[3th Verse] (F#m / F#m / A / B)
It's hot as hell, honey in this room
sure hope the weather will break soon
the air is heavy, heavy as a truck
hope the rain will wash away our bad luck

D5 / E5 / A5 / C#5 / D5
heeeey... heeeey.....

D5                   E5
Well, if the sky can crack
           A5
there must be some way back
C#5          D5
for love and only love

D / E
F#m / A
Electrical Storm
D / E
F#m / A
Electrical Storm
D / E
F#m / A
Electrical Storm
B (long time)

[Bridge] F5 / C5 / B5 / G5 / E5

[Solo]
e|--------------------------------|
B|--12/-10/-8/--7h8-7-5/3-3h5-----|
G|--------------------------------|
D|--------------------------------|
A|--------------------------------|
E|--------------------------------|

E / A
Baby don't cry
Baby don't cry
Baby don't cry
Baby don't cry

e|-------------------------------------------------------------------------|
B|--3/5/7/5/7/8/10/8/10/12/13/14/15-14-14-15-14-14-15-14-14-15--17-17~~----|
G|-------------------------------------------------------------------------|
D|-------------------------------------------------------------------------|
A|-------------------------------------------------------------------------|
E|-------------------------------------------------------------------------|

Eso es todo...

************************************

| h  Hammer-on
| p  Pull-off
| /  Slide up
| ~  Vibrato

************************************

            
            
Suggest correction
Creating personal tab
Creating personal tab
You can edit any tab online and save it as your Personal.

You can edit, replace or remove any tab part or add personal notes – all changes will be seen only by you.

Personal tabs can be accessed anytime from any device, even offline.
Learn more »
comments
print report bad tab
1 comment total.
+1 reply
Clayh 20 Mar 18, 2011 06:24 PM

Instead of

E-----9-----9---------7-----7-------
B---7-----7-----7---7-----7-----7---
G-9-----9-----9---9-----9-----9-----
D-----------------------------------
A-----------------------------------
E-----------------------------------


it should be

E-----9-----9---------7-----7-------
B---7-----7-----7---7-----7-----7---
G-9-----9-----9---9-----8-----8-----
D-----------------------------------
A-----------------------------------
E-----------------------------------

Just sayin'. :)

guest
Wanna post a correction for this tab? Suggest correction