Oops, an error
Loading. Please wait.

Electrical Storm Bass Tab

version 2
version 2

Whole song

Interactive

by U2
1,660 views 1 this week
no commentswrite comment
1 2 3 4 5
excellent!
x 1
add to favorites
launch autoscroll
font size
0
reset
guitar tuner
Tab Pro tools
  • play this tab
  • loop segment
  • change instrument
  • show fretboard
  • metronome
Autoscroll
slow
fast
+/-
esc
set tempo
stop
Contributor
 Song: ELECTRICAL STORM -B SIDE VERSION- (bass tab)
 Artist: U2
 Tabbed by: FER MADRID
 Time signature: 4/4
 STANDARD TUNING
                                                    0:44       
  INTRO & 1st VERSE                   (4x)         (drum fill)
G|---------|---------|---------|---------|---------|---------|   
D|*---R----|----E----|----S----|----T---*|--R---E--|--S---T--|
A|*--------|---------|---------|--------*|---------|---------|
E|---------|---------|---------|---------|---------|---------|
   1 2 3 4   1 2 3 4   1 2 3 4   1 2 3 4   1 2 3 4   1 2 3 4 

  1st CHORUS
G|-------------------|----------------------|
D|*------------------|----------------------|
A|*-5555555555555555-|-777777/12---12-12-12-|
E|-------------------|----------------------|
    1   2   3   4      1   2     3    4     

G|------------------|-------------------|
D|------------------|------------------*|
A|-4-44444444444444-|-5-55555555555555-*|
E|------------------|-------------------|
   1   2   3   4      1   2   3   4  

G|----------------|------------------|
D|----------------|------------------|
A|----------------|------------------|
E|-2-2-2-5--------|-0-0-0-7---/-12-\-|
   1   2   3   4    1   2   3   4  

  2nd VERSE                     (4x)
G|----------------|----------------|----------------|----------------|
D|*---------------|---------------*|*---------------|---------------*|
A|*---------------|---------------*|*---------------|---------------*|
E|-2-2-2-2---2-2-2|5-5-5-7---7-7-7-|-2-2-2-2-2-2-2-2|5-5-5-7-7-7-7-7-|
   1   2   3   4   1   2   3   4     1   2   3   4   1   2   3   4  
   
  2nd CHORUS
G|-------------------|----------------------|
D|*------------------|----------------------|
A|*-5555555555555555-|-777777/12---12-12-12-|
E|-------------------|----------------------|
    1   2   3   4      1   2     3    4     

G|------------------|-------------------|
D|------------------|------------------*|
A|-4-44444444444444-|-5-55555555555555-*|
E|------------------|-------------------|
   1   2   3   4      1   2   3   4  

  "Electrical storm...                 (3x)
G|-----------------|----------------------|
D|*----------------|---------------------*|
A|*5555557---7-7-7-|-999999-12---12-12-12*|
E|-----------------|----------------------|
   1   2   3   4     1   2     3    4    

                           ...babe don't cry
G|------------------|------------------|----------------|----------------|
D|------------------|/9999999999999999-|*---------------|---------------*|
A|-2-222-2222222222-|------------------|*---------------|---------------*|
E|------------------|------------------|-2-2---5--------|-0-0---7-----7\-|
   1   2   3   4      1   2   3   4      1   2   3   4    1   2   3   4

  3rd VERSE                     (4x)
G|----------------|----------------|
D|*---------------|---------------*|   
A|*---------------|---------------*|
E|-2-2-2-2-2-2-2-2|5-5-5-7-7-7-7-7-|
  1   2   3   4   1   2   3   4  

  3rd CHORUS
G|-------------------|----------------------|
D|*------------------|----------------------|
A|*-5555555555555555-|-777777/12---12-12-12-|
E|-------------------|----------------------|
    1   2   3   4      1   2     3    4     

G|------------------|-------------------|
D|------------------|------------------*|
A|-4-44444444444444-|-5-55555555555555-*|
E|------------------|-------------------|
   1   2   3   4      1   2   3   4  

  "Electrical storm...                 (3x)
G|-----------------|----------------------|
D|*----------------|---------------------*|
A|*5555557---7-7-7-|-999999-12---12-12-12*|
E|-----------------|----------------------|
   1   2   3   4     1   2     3    4  

G|------------------|-----------------|  
D|------------------|-----------------|
A|-2-222-2222222222-|-2-2-2-2-2-2-2-2-|
E|------------------|-----------------|
   1   2   3   4      1   2   3   4

G|------------------|----------------------------------|
D|------------------|----------------------------------|
A|-8888888888888888-|-15151515151515151515151515151515-|
E|------------------|----------------------------------|
   1   2   3   4      1       2       3       4    

  OUTRO "Baby don't cry..."         (8x)
G|------------------|------------------|
D|*-----------------|-----------------*|
A|*-----------------|-----------------*|
E|-0000000000000000-|-5555555555555555-|
   1   2   3   4      1   2   3   4      
                                                 FINE
G|-----------------|----------------|----------------||
D|-----------------|----------------|----------------||
A|-----------------|----------------|----------------||
E|/12--------------|----------------|-12\------------||
   1   2   3   4     1   2   3   4    1   2   3   4    


ANY COMMENTS TO mr_roboto21012@hotmail.com
comments
We did not receive enough feedback on this tab! Please rate:
print report bad tab
1 2 3 4 5
I want to post or [tab]
guest
You may want to rate the tab now too:
select rating
Please do not post tabs as comments. Select "correction" instead!