Oops, an error
Loading. Please wait.

Electrical Storm Tab

version 2
version 2

Whole song

Interactive

by U2
3,853 views 3 this week
2 commentsread comments
1 2 3 4 5
accurate
x 5
add to favorites
launch autoscroll
font size
0
reset
how to read this tab
guitar tuner
Autoscroll
slow
fast
+/-
esc
set tempo
stop
Help us to improve Ultimate-Guitar.com Take our survey!
×
THIS TAB IS BEEING SPREAD BY veronajanko@hotmail.com

Electrical Storm
tabbed by - Dave

RIFF A (similar to this)
E-------10-------10-------------8--------8--------------
B-----8-------8--------8-----8-------8--------8---------
G--10------10-------10----10-----10--------10-----------
D-------------------------------------------------------
A-------------------------------------------------------
E-------------------------------------------------------
RIFF A (alternative)
E-------10-------10-------------8--------8--------------
B-----8-------8--------8-----8-------8--------8---------
G--10------10-------10----9--------9-------9------------
D-------------------------------------------------------
A-------------------------------------------------------
E-------------------------------------------------------

INTRO: RIFF A TWICE

VERSE 1,2: RIFF A
FOLLOWED BY
RIFF B
E-------------------------------------------------------
B-------------------------------------------------------
G-------------------------------------------------------
D-------------------------------------------------------
A-1-1-S-3-3-S-5-5-S-8-8-S-1-1-S-3-3-S-5-5-S-8-8---------
E-------------------------------------------------------

E-------------------------------------------------------
B-------------------------------------------------------
G-------------------------------------------------------
D-------------------------------------------------------
A-8-8-S-7-7-S-8-8-S-12-12-S-10-10-S-8-8-S-6-6-S-5-5-----
E-------------------------------------------------------

CHORUS
play this four times.........
E-------------------------------------------------------
B--11-10-------------11-11------------------------------
G--12----12-10----12-12-12------------------------------
D--12----------12---------------------------------------
A-------------------------------------------------------
E-------------------------------------------------------

...then
E------------------------10-----------------------------
B--11-10--------11-10-11-11-11--------------------------
G--------12--12-------------12--------------------------
D-------------------------------------------------------
A-------------------------------------------------------
E-------------------------------------------------------


OUTRO RIFF 1
E--------9-------9-------------9--------9---------------
B-----9-------9--------9-----9-------9--------9---------
G--11------11-------11----10-----10--------10-----------
D-------------------------------------------------------
A-------------------------------------------------------
E-------------------------------------------------------
OUTRO RIFF 2
w/slide
E-------------------------------------------------------
B-------------------------------------------------------
G-s-/12-s-/10-s-/8--7/s\8/s\7\5-5-s 7-------------------
D-------------------------------------------------------
A-------------------------------------------------------
E-------------------------------------------------------


====================================================================

Here are the chords from "Electrical Storm" for the verse
from Javier

1----2-2---0-0---0--0---0---0------------------------------
2----2-2---2-2---0--0---0---0-----------------------------
3----2-2---2-2---1--1---2---1---------------------------
4----4-4---2-2---2--2---2---2----------------------------
5----4-4---0-0---2--2---2---2----------------------------
6----2-2---0-0---0--0---0---0-----------------------------

Fm - A - E - A/E¿? - E

The sea is swells like a sore head
and the night it is aching
Two lovers lie with no sheets on their bed
and the day it is breaking

On rainy days we go swimming out
on rainy days, swimming in the sound
On rainy days we go swimming out

You're in my mind all of the time
I know that's not enough
if the sky can crack
there must be some way back
for love and only love

Car alarm ? and back to sleep
you kept awake dreaming some else's dream
coffee is cold, but it will get you through
compromise, there's nothing new to you
let's see colours that have never been seen
let's go to places no one else has been

You're in my mind all of the time
I know that's not enough
if the sky can crack
there must be some way back
to love and only love

Electrical Storm
Electrical Storm
Electrical Storm
Baby don't cry

It's hot as hell, honey in this room
sure hope the weather will break soon
the air is heavy, heavy as a truck
hope the rain will wash away our bad luck

heeeey... heeeey.....

If the sky can crack, there must be some way back
for love and only love

Electrical Storm
Electrical Storm
Electrical Storm

Baby don't cry
Baby don't cry
Baby don't cry
Baby don't cry



==========================================================================
ELECTRICAL STORM Storm
from Jeffrey Ball

Intro: F#m / A / E / B

Verse: 
F#m / A / B
The sea it swells like a sore head
F#m / A / B
and the night it is aching
F#m / A / B
Two lovers lie with no sheets on their bed
F#m / A / B
and the day it is breaking 

F#m / A / B
On rainy days we go swimming out
F#m / A / B
on rainy days, swimming in the sound
F#m / A / B
On rainy days we go swimming out 

Pre-Chorus(?):
D E C#m
You're in my mind all of the time
D
I know that's not enough
D E
if the sky can crack
C#m
there must be some way back
D
for love and only love 

Intro: F#m / A / E / B

2nd Verse, Same as the First:

Car alarm won't let you back to sleep
you're kept awake dreaming some else's dream
coffee is cold, but it will get you through
compromise, that's nothing new to you
let's see colours that have never been seen
let's go to places no one else has been 

Pre-Chorus(?):
You're in my mind all of the time
I know that's not enough
if the sky can crack
there must be some way back
to love and only love 

Chorus:

D / E
F#m A
Electrical Storm
D / E
F#m A
Electrical Storm
D / E
F#m A
Electrical Storm
B
Baby don't cry 

Intro: F#m / A / E / B (2x)

Verse Chords: (F#m / A / B)
It's hot as hell, honey in this room
sure hope the weather will break soon
the air is heavy, heavy as a truck
hope the rain will wash away our bad luck 

D / E / C#m / D 
heeeey... heeeey..... 

D / E / C#m / D 
If the sky can crack, there must be some way back
for love and only love 

D / E
F#m A
Electrical Storm
D / E
F#m A
Electrical Storm
D / E
F#m A
Electrical Storm
B (long time)

Solo: F / C / E / A

E / A
Baby don't cry
Baby don't cry
Baby don't cry
Baby don't cry
Suggest correction
What's this?
You can suggest a correction to this tab. Community and Mods will review your correction and vote to approve or reject it.
comments
print report bad tab
2 comments total.
+1 reply
nico87 12 wrote on October 31 2002, 12:00 am

intro....

E-----2/7-5--0-2-0-2-0-2---2/7--5--0-2-0-2-0-2---2/7----
B--------------------------------------
G--------------------------------------
D--------------------------------------
A--------------------------------------
E--------------------------------------

0 reply
Jamie93 10 wrote on November 2 2005, 10:55 am

I sure hope ou will die painfully

guest
You may want to rate the tab now too:
select rating
Please do not post tabs as comments. Select "correction" instead!