Oops, an error
Loading. Please wait.

Elevation Tab

version 1
version 1

Whole song

Interactive

by U2
1,908 views 1 this week
1 commentread comment
1 2 3 4 5
please rate
add to favorites
launch autoscroll
font size
0
reset
how to read this tab
guitar tuner
Autoscroll
slow
fast
+/-
esc
set tempo
stop
Help us to improve Ultimate-Guitar.com Take our survey!
×
Author
Edge uses a SG gibson for this
Performed in Boston (USA)

Normal distortion - while Bono is doing the woo hoos
 E            A5                        F#     A
--------x-x-x--5--5--5---|             -2--2---5--5--5--5--------
-9---9--x-x-x--7--7--7---|             -4--4---7--7--7--7--------
-7---7--x-x-x--7--7--7---|             -4--4---7--7--7--7--------
-7---7-------------------|<<< 3 times  --------------------------
-7---7-------------------|             --------------------------
-0---0-------------------|             --------------------------

Main Riff 
B       A           B  E
------------------------------------------------
------------------------------------------------
------------------------------------------------
------------------------------------------------
------------------------7--7--7--7--7-----------
-7--7--7\5--5--5--5--7--------------------------

In the verse it is heavy distortion and in the chorus it is just normal distortion.

Bridge (Love lift me out of these.....)

--------------------------0--------|
----------2-------------0----------|
--------2---2---------1-----1h2p1--|I'm not sure if it's right but give it a go
------2-------2-----2--------------|
----0-------------2----------------|
-----------------------------------|

Main Riff (chorus)
------------------------------------------------
------------------------------------------------
------------------------------------------------
------------------------------------------------
------------------------7--7--7--7--7-----------
-7--7--7\5--5--5--5--7--------------------------

Here's the fun part
Distortion and Wah
Play quick strokes repeatedly on each chord
except when sliding from B5 to E5 

 E5  Eb  D5  B5/E5      EB  D5 B5/E5      Eb  D5  C#
-----------------------------------------------------|
-----------------------------------------------------|
-----------------------------------------------------|
-14--13--12---9/14--14--13--12--9/14--14--13--12--11-|
-14--13--12---9/14--14--13--12--9/14--14--13--12--11-|
-12--11--10---7/12--12--11--10--7/12--12--11--10--9--|

  
|----------------|
|----------------|
|----------------|
|-10--9--5--7----|<
                                    
Suggest correction
Give kudos to tab author, rate the tab!
1 2 3 4 5
comments
print report bad tab
1 comment total.
0 reply
alvarelias 10 wrote on May 26 2006, 07:05 am

this's not u2

guest
You may want to rate the tab now too:
select rating
Wanna post a correction for this tab? Suggest correction