Oops, an error
Loading. Please wait.

Elevation Tab

version 3
version 3

Whole song

Interactive

by U2
827 views 3 this week
no commentswrite comment
1 2 3 4 5
please rate
add to favorites
launch autoscroll
font size
0
reset
how to read this tab
guitar tuner
Tab Pro tools
  • play this tab
  • loop segment
  • change instrument
  • show fretboard
  • metronome
×
Best way to learn
"Elevation"
Autoscroll
slow
fast
+/-
esc
set tempo
stop
Contributor
                      ELEVATION (Live)
                                As recorded by U2

Words by Bono

Music by U2


Gtr I (E A D G B E) - 'Edge overdrive'
Gtr II (E A D G B E) - 'Edge fuzz I'
Gtr III (E A D G B E) - 'Edge fuzz II'
Gtr IV (E A D G B E) - 'Edge clean w/ tremelo'

   Intro / Chorus
    Q=110
    E        A          F#5      A
   4/4
    Gtr I
    Q  Q   S S E Q   3x Q  Q   S S E Q
||-------------------||-----------------|
||o-9--9------------o||-----------------|
||--9--9--^5S6-6-6---||-------^5S6-6-6--|
||--9--9--^6S7-7-7---||-4--4--^6S7-7-7--|
||o-7--7--^6S7-7-7--o||-4--4--^6S7-7-7--|
||--------^4S5-5-5---||-2--2--^4S5-5-5--|


    E        A          F#5   C5
    Q  Q   S S E Q   3x Q  Q    E  E  Q
||-------------------||------------------|
||o-9--9------------o||------------------|
||--9--9--^5S6-6-6---||------------------|
||--9--9--^6S7-7-7---||-4--4--/10-10-10--|
||o-7--7--^6S7-7-7--o||-4--4--/10-10-10--|
||--------^4S5-5-5---||-2--2---/8--8--8--|


   Verse 1
    Gtrs II, III
    Q  Q   Q  Q    Q  E Q  Q  E  4x
||---------------|---------------||
||o--------------|--------------o||
||---------------|---------------||
||---------------|---------------||
||o--------------|-7----7--7--7-o||
||--7--7--\5--5--|---------------||


                 1.,2.,3.         4.
    B5    A5      E5               E5
    Gtr I
    Q  Q  Q  Q    Q  E Q  Q  E  4x Q  Q  Q  Q
||--------------|---------------||-------------|
||o-------------|--------------o||-------------|
||--------------|-9----9--9--9--||-9--9--9--9--|
||--9--9--7--7--|-9----9--9--9--||-9--9--9--9--|
||o-9--9--7--7--|-7----7--7--7-o||-7--7--7--7--|
||--7--7--5--5--|---------------||-------------|


   Chorus
    E        A          F#5   C5
    Q  Q   S S E Q   3x Q  Q    E  E  Q
||-------------------||------------------|
||o-9--9------------o||------------------|
||--9--9--^5S6-6-6---||------------------|
||--9--9--^6S7-7-7---||-4--4--/10-10-10--|
||o-7--7--^6S7-7-7--o||-4--4--/10-10-10--|
||--------^4S5-5-5---||-2--2---/8--8--8--|


   Verse 2
    Gtrs II, III
    Q  Q   Q  Q    Q  E Q  Q  E  4x
||---------------|---------------||
||o--------------|--------------o||
||---------------|---------------||
||---------------|---------------||
||o--------------|-7----7--7--7-o||
||--7--7--\5--5--|---------------||


                 1.,2.,3.         4.
    B5    A5      E5               E5
    Gtr I
    Q  Q  Q  Q    Q  E Q  Q  E  4x Q  Q  Q  Q
||--------------|---------------||-------------|
||o-------------|--------------o||-------------|
||--------------|-9----9--9--9--||-9--9--9--9--|
||--9--9--7--7--|-9----9--9--9--||-9--9--9--9--|
||o-9--9--7--7--|-7----7--7--7-o||-7--7--7--7--|
||--7--7--5--5--|---------------||-------------|


   Chorus
    E        A          F#5      A
    Q  Q   S S E Q   3x Q  Q   S S E Q
||-------------------||-----------------|
||o-9--9------------o||-----------------|
||--9--9--^5S6-6-6---||-------^5S6-6-6--|
||--9--9--^6S7-7-7---||-4--4--^6S7-7-7--|
||o-7--7--^6S7-7-7--o||-4--4--^6S7-7-7--|
||--------^4S5-5-5---||-2--2--^4S5-5-5--|


    E        A          F#5   C5
    Q  Q   S S E Q   3x Q  Q    E  E  Q
||-------------------||------------------|
||o-9--9------------o||------------------|
||--9--9--^5S6-6-6---||------------------|
||--9--9--^6S7-7-7---||-4--4--/10-10-10--|
||o-7--7--^6S7-7-7--o||-4--4--/10-10-10--|
||--------^4S5-5-5---||-2--2---/8--8--8--|


 Middle eight
  E                             A
  Gtr IV
  E E E Q  E E E   +W           E E E Q  Q  a E   +E  Q  H    +E
|-------0--------|------------|-------5---------|-----------------|
|----------0-----|------------|----------5------|-----------------|
|------------1---|------------|-------------6h7-|-(7)-6-----------|
|-----2--------2-|-(2)--------|-----7-----------|--------7----(7)-|
|---2------------|------------|---7-------------|-----------------|
|-0--------------|-(0)--------|-5---------------|-(5)-------------|
  W                +W           W                 +W


  E               D                                   A
  E E E Q  E Q     E  E  E  Q   E  Q     +W           E E E Q  E Q    +W
|-------0-------|----------10---------|-------------|-------5-------|--------|
|----------0----|--------------10-----|-------------|----------5----|--------|
|------------1--|-----------------11--|-(11)--------|------------6--|-(6)----|
|-----2---------|-------12------------|-------------|-----7---------|--------|
|---2-----------|----12---------------|-------------|---7-----------|--------|
|-0-------------|-10------------------|-(10)--------|-5-------------|-(5)----|
  W                W                     +W           W               +W


  E5
  Gtr I
  S E Q..   S E E.   H     H
|------------------|------------|
|------------------|------------|
|-9-9-------9-9-9--|-9\---------|
|-9-9-------9-9-9--|-9\---------|
|-7-7-------7-7-7--|-7\---------|
|------------------|------------|


   Verse 3
                 1.,2.,3.         4.
    B5    A5      E5               E5
    Q  Q  Q  Q    Q  E Q  Q  E  4x Q  Q  Q  Q
||--------------|---------------||-------------|
||o-------------|--------------o||-------------|
||--------------|-9----9--9--9--||-9--9--9--9--|
||--9--9--7--7--|-9----9--9--9--||-9--9--9--9--|
||o-9--9--7--7--|-7----7--7--7-o||-7--7--7--7--|
||--7--7--5--5--|---------------||-------------|


   Guitar Solo
     TP    TP      TP
     H     H       H     +H
||--------------|-----------------||
||o-------------|----------------o||
||--------------|-----------------||
||--14----13----|-12----(12)\-----||
||o-14----13----|-12----(12)\----o||
||--------------|-----------------||


   TP    TP      TP    TP      TP TP   TP
   H     H       H     H       Q  H    Q    E E E E H
|-------------|-------------|-------------|--------------|
|-------------|-------------|-------------|--------------|
|-------------|-------------|-------------|--------------|
|-14----13----|-12----11----|-10--9----6--|-7-7-7-7-7----|
|-14----13----|-12----11----|-10--9----6--|-7-7-7-7-7----|
|-------------|-------------|-------------|--------------|


   Chorus / Outro
    E        A          F#5      A
    Q  Q   S S E Q   3x Q  Q   S S E Q
||-------------------||-----------------|
||o-9--9------------o||-----------------|
||--9--9--^5S6-6-6---||-------^5S6-6-6--|
||--9--9--^6S7-7-7---||-4--4--^6S7-7-7--|
||o-7--7--^6S7-7-7--o||-4--4--^6S7-7-7--|
||--------^4S5-5-5---||-2--2--^4S5-5-5--|


    E        A          F#5      A
    Q  Q   S S E Q   3x Q  Q   S S E Q
||-------------------||-----------------|
||o-9--9------------o||-----------------|
||--9--9--^5S6-6-6---||-------^5S6-6-6--|
||--9--9--^6S7-7-7---||-4--4--^6S7-7-7--|
||o-7--7--^6S7-7-7--o||-4--4--^6S7-7-7--|
||--------^4S5-5-5---||-2--2--^4S5-5-5--|


    E        A          F#5      A
    Q  Q   S S E Q   3x Q  Q   S S E Q
||-------------------||-----------------|
||o-9--9------------o||-----------------|
||--9--9--^5S6-6-6---||-------^5S6-6-6--|
||--9--9--^6S7-7-7---||-4--4--^6S7-7-7--|
||o-7--7--^6S7-7-7--o||-4--4--^6S7-7-7--|
||--------^4S5-5-5---||-2--2--^4S5-5-5--|


    E        A          F#5      A
    Q  Q   S S E Q   3x Q  Q   S S E Q
||-------------------||-----------------|
||o-9--9------------o||-----------------|
||--9--9--^5S6-6-6---||-------^5S6-6-6--|
||--9--9--^6S7-7-7---||-4--4--^6S7-7-7--|
||o-7--7--^6S7-7-7--o||-4--4--^6S7-7-7--|
||--------^4S5-5-5---||-2--2--^4S5-5-5--|


    E        A          F#5   C5
    Q  Q   S S E Q   3x Q  Q    E  E  Q
||-------------------||------------------|
||o-9--9------------o||------------------|
||--9--9--^5S6-6-6---||------------------|
||--9--9--^6S7-7-7---||-4--4--/10-10-10--|
||o-7--7--^6S7-7-7--o||-4--4--/10-10-10--|
||--------^4S5-5-5---||-2--2---/8--8--8--|


  E
  H    Q  Q    +H     H      +W           +W           Q  H.
|-0----0--0--|-(0)----0----|-(0)--------|-(0)--------|-0--------*|
|-0----0--0--|-(0)----0----|-(0)--------|-(0)--------|-0--------*|
|-1----1--1--|-(1)----1----|-(1)--------|-(1)--------|-1--------*|
|-2----2--2--|-(2)----2----|-(2)--------|-(2)--------|-2--------*|
|-2----2--2--|-(2)----2----|-(2)--------|-(2)--------|-2--------*|
|-0----0--0--|-(0)----0----|-(0)--------|-(0)--------|-0--------*|


Duration Legend
---------------
W - whole; H - half; Q - quarter; E - 8th; S - 16th; T - 32nd; X - 64th; a - acciaccatura
+ - note tied to previous; . - note dotted; .. - note double dotted
Uncapitalized letters represent notes that are staccato (1/2 duration)
Irregular groupings are notated above the duration line
Duration letters will always appear directly above the note/fret number it represents the
duration for.  Duration letters with no fret number below them represent rests.  Multi-
bar rests are notated in the form Wxn, where n is the number of bars to rest for.  Low
melody durations appear below the staff

Tablature Legend
----------------
 h   - hammer-on
 p   - pull-off
 b   - bend
 pb  - pre-bend
 r   - bend release (if no number after the r, then release immediately)
 /\  - slide into or out of (from/to "nowhere")
 s   - legato slide
 S   - shift slide
  - natural harmonic
[n]  - artificial harmonic
n(n) - tapped harmonic
 ~   - vibrato
 tr  - trill
 T   - tap
 TP  - trem. picking
 PM  - palm muting
\n/  - tremolo bar dip; n = amount to dip
 \n  - tremolo bar down
 n/  - tremolo bar up
/n\  - tremolo bar inverted dip
 =   - hold bend; also acts as connecting device for hammers/pulls
 <>  - volume swell (louder/softer)
 x   - on rhythm slash represents muted slash
 o   - on rhythm slash represents single note slash

Misc Legend
-----------
 |  - bar
||  - double bar
||o - repeat start
o|| - repeat end
*|  - double bar (ending)
 :  - bar (freetime)
 $  - Segno
 &  - Coda
Tempo markers -  = BPM(8/16=s8/s16), where s8 = swing 8ths, s16 = s
comments
We did not receive enough feedback on this tab! Please rate:
print report bad tab
1 2 3 4 5
I want to post or [tab]
guest
You may want to rate the tab now too:
select rating
Please do not post tabs as comments. Select "correction" instead!