Oops, an error
Loading. Please wait.

Elevation Tab

version 1
version 1

Whole song

Interactive

by U2
46,043 views 24 this week
4 commentsread comments
1 2 3 4 5
excellent!
x 8
add to favorites
launch autoscroll
font size
0
reset
how to read this tab
guitar tuner
Tab Pro tools
  • play this tab
  • loop segment
  • change instrument
  • show fretboard
  • metronome
×
Best way to learn
"Elevation"
Autoscroll
slow
fast
+/-
esc
set tempo
stop
Contributor
U2 - Elevation from the "All that you can't leave behind" album

::=Repeat
\=Slide up
p=pull off

Q=115
4/4
Intro:
Guitar 1   6 Times
   (E)    (A)        (E)    (A)
  w/dist.+octaver   Fig 1-----------|
E:----------------::----------------:
B:----------------::----------------:
G:----------------::----------------:
D:--2-------------::--2-------------:
A:---------0------::---------0------:
E:----------------::----------------:

                                   1________________________________
     E             A               |   E             A              ||
Gtr. 2 (elec.)                     |                                ||
E:---------------------------------:--------------------------------::
B:---9---9--X-X-14-14-14--14\------:---9---9--X-X-14-14-14--14\-----::
G:---9---9--X-X-14-14-14--14\------:---9---9--X-X-14-14-14--14\-----::
D:---9---9--X-X-14-14-14--14\------:---9---9--X-X-14-14-14--14\-----::
A:---7---7------12-12-12--12\------:---7---7------12-12-12--12\-----::
E:---0---0-------------------------:---0---0------------------------::

 2_________________________________
 |  B5               A5            |
 |                                 |
E:---------------------------------:
B:---------------------------------:
G:--16---16--X-X-X-X-14--14\-------:
D:--16---16--X-X-X-X-14--14\-------:
A:--14---14--X-X-X-X-12--12\-------:
E:---------------------------------:

Verse
    (B5) (A5)           (E5)                  (B5) (A5)     
E::---------------------:--------------------:--------------------:
B::---------------------:--------------------:--------------------:
G::---------------------:--------------------:--------------------:
D::---------------------:--------------------:--------------------:
A::---------------------:-7--7---7--7--7---7-:--------------------:
E::--7\5--5---5-----7---:--------------------:--7\5--5---5-----7--:

    (E5)                 (B5) (A5)           (E5)
 E:--------------------:--------------------:--------------------:
 B:--------------------:--------------------:--------------------:
 G:--------------------:--------------------:--------------------:
 D:--------------------:--------------------:--------------------:
 A:--7-7----7-7-7----7-:--------------------:-7--7---7--7--7---7-:
 E:--------------------:--7\5--5--5-----7---:--------------------:

     (B5)          (A5)            (E5)
 E:------------------------------:------------------------------:
 B:------------------------------:------------------------------:
 G:------------------------------:------------------------------:
 D:------------------------------:------------------------------:
 A:------------------------------:--7---7------7---7---7-----7--:
 E:---7----\----5---5---5-----7--:------------------------------:

Chorus
Gtr. 3 (Acous.)

   (B)           (A)              (E)
 E:------------------------------:------------------------------:
 B:---5p3-5-------5p3-5p5-5p3----:---5p3-5-----5--3-----3-------:
 G:-----------4---------------4--:----------4--------4----------:
 D:------------------------------:------------------------------:
 A:------------------------------:------------------------------:
 E:------------------------------:------------------------------:
   (B)           (A)              (E)
 E:------------------------------:------------------------------:
 B:---5p3-5-------5p3-5p5-5p3----:---5p3-5-----5p3-5--3---------:
 G:-----------4---------------4--:----------4------------4------:
 D:------------------------------:------------------------------:
 A:------------------------------:------------------------------:
 E:------------------------------:------------------------------:
   (B)           (A)              (E)
 E:------------------------------:------------------------------:
 B:---5p3-5-------5p3-5p5-5p3----:---5p3-5-----5--3-----3-------:
 G:-----------4---------------4--:----------4--------4----------:
 D:------------------------------:------------------------------:
 A:------------------------------:------------------------------:
 E:------------------------------:------------------------------:
   (B)           (A)              (E)
 E:------------------------------:------------------------------:
 B:---5p3-5-------5p3-5p5-5p3----:---5p3-5-----5p3-5--3---------:
 G:-----------4---------------4--:----------4------------4------:
 D:------------------------------:------------------------------:
 A:------------------------------:------------------------------:
 E:------------------------------:------------------------------:
  
  1_______________________________________________________________
  |                                                               |
   (B)      (A)    (E)             (B)     (A)     (E)            
 E:---------------:---------------:---------------:---------------::
 B:---------------:---------------:---------------:---------------::
 G:---------------:---------------:---------------:---------------::
 D:---------------:---------------:---------------:---------------::
 A:---------------:-7-7--7-7-7--7-:---------------:-7-7--7-7-7--7-::
 E:-7\5--5--5---7-:---------------:-7\5--5--5---7-:---------------::
  2___________________________________
  |                                   
  |   E             A                    E                 A 
E::-----------------------------------:----------------------------------:
B::---9----9---X--X-14--14--14---14\--:--9----X--9----X--X-14-14-14--14\-:
G::---9----9---X--X-14--14--14---14\--:--9----X--9----X--X-14-14-14--14\-:
D::---9----9---X--X-14--14--14---14\--:--9----X--9----X--X-14-14-14--14\-:
A::---7----7--------12--12--12---12\--:--7-------7---------12-12-12--12\-:
E::---0----0--------------------------:--0-------0-----------------------:
                          1_______________________ 2______________________
                          |                       ||                      
     E         A            E         A              
 E:-----------------------:-----------------------::----------------------:
 B:-9--9--X-X-14-14-14-14\:-9--9--X-X-14-14-14-14\::----------------------:
 G:-9--9--X-X-14-14-14-14\:-9--9--X-X-14-14-14-14\::-16--16-X-X-X-X-14-14\:
 D:-9--9--X-X-14-14-14-14\:-9--9--X-X-14-14-14-14\::-16--16-X-X-X-X-14-14\:
 A:-7--7------12-12-12-12\:-7--7------12-12-12-12\::-14--16-X-X-X-X-12-14\:
 E:-0--0------------------:-0--0------------------::----------------------:

Middle    N.C freely: Gtrs. 1,2+3:tacet (11Bars without any guitar)

Gtr.4
w/heavy dist.+wah wah
Gtr. 1: w/Fig 1 (x7)
     E        A          E            A     E      A        E           A
E:-------------------:-------------------:--------------:-----------------:
B:-------------------:-------------------:--------------:-----------------:
G:---9--------8------:---7---------------:--9------8----:---7-------------:
D:-------------------:-------------------:--------------:-----------------:
A:---7--------6------:---5---------------:--7------6----:---5-------------:
E:-------------------:-------------------:--------------:-----------------:

     E        A          E            A     E      A       B5          A5
E:-------------------:-------------------:--------------:-----------------:
B:-------------------:-------------------:--------------:-----------------:
G:---9--------8------:---7---------------:--9------8----:---7-------------:
D:-------------------:-------------------:--------------:-----------------:
A:---7--------6------:---5---------------:--7------6----:---5-------------:
E:-------------------:-------------------:--------------:-----------------:

    E          A                 E         A 
E::---------------------------:------------------------:
B::-9--9--X--X-14--14--14--14\:-9--9--X-X-14-14-14--14\:
G::-9--9--X--X-14--14--14--14\:-9--9--X-X-14-14-14--14\:
D::-9--9--X--X-14--14--14--14\:-9--9--X-X-14-14-14--14\:
A::-7--7-------12--12--12--12\:-7--7------12-12-12--12\:
E::-0--0----------------------:-0--0-------------------:
  E         A
:------------------------:
:-9--9--X-X-14-14-14--14\:
:-9--9--X-X-14-14-14--14\:
:-9--9--X-X-14-14-14--14\:
:-7--7------12-12-12--12\:
:-0--0-------------------:

1________________________ 2_________________________________
|                        ||                                 |
  E         A
:------------------------::---------------------------------::
:-9--9--X-X-14-14-14--14\::-16----16---X--X--X--X--14---14\-::
:-9--9--X-X-14-14-14--14\::-16----16---X--X--X--X--14---14\-::
:-9--9--X-X-14-14-14--14\::-14----14---X--X--X--X--12---12\-::
:-7--7------12-12-12--12\::---------------------------------::
:-0--0-------------------::---------------------------------::
comments
print report bad tab
4 comments total. Showing first comments.
0 reply
marianoarnaiz wrote on May 2 2005, 12:00 am

Fanilly agod tab of this song

0 reply
timmy3125 wrote on June 3 2006, 06:56 pm

i agree, excellent job here my friend

0 reply
nik_I wrote on December 31 2006, 09:26 am

for the intro you don't use an octaver. the effects device that the edge uses doesn't officially exist. He took a Kay Fuzz pedal and somehow combined it with a wah pedal.

I want to post or [tab]
guest
You may want to rate the tab now too:
select rating
Please do not post tabs as comments. Select "correction" instead!