Oops, an error
Loading. Please wait.

Endless Deep Bass Tab

version 2
version 2

Whole song

by U2
318 views 1 this week
no commentswrite comment
1 2 3 4 5
2 more votes to show rating
add to favorites
launch autoscroll
font size
0
reset
guitar tuner
Autoscroll
slow
fast
+/-
esc
set tempo
stop
Help us to improve Ultimate-Guitar.com Take our survey!
×
Author
Difficulty
novice
-------------------------------------------------------------------------------
                             ENDLESS DEEP - U2
-------------------------------------------------------------------------------

Tabbed By : SonofClayton
e-mail: harry.ajbrennan@gmail.com

Tuning: Standard EADG

Adam does vary the rhythm and slides in this song, so you will hear slight differences throughout.

Main riff (0:21)  <--------Variations-------> 
G|---------------|-------------|-------------| play
D|---------------|-------------|-------------| main
A|--7-9--9-------|--7-9--97----|--7-9--977---| riff
E|-9------7-7-9--|-9-------79--|-9--------9--|  x8

Verse (0:46)
G|---------------------------------------------------------------------------------------------|
D|---------------------------------------------------------------------------------------------|
A|---------------------9-9-9-989-9-9-9-9-989----------------------9-9-9-989-9-9-998/12--12-12/-|
E|-5-5-5-545-5-5-5-545-----------------------5-5-5-545--5-5-5-545------------------------------|

Main riff (1:14)         
G|---------------| play
D|---------------| main
A|--7-9--9-------| riff
E|-9------7-7-9--|  x8

Interlude (1:41)
G|----------------------------------------------------------------------------|
D|----------------------------------------------------------------------------|
A|--------------------------------------------9-9-9-989--9-9-998/12--12--12/--|
E|--9/----9/----9/----9/5-5-5-545--5-5-5-545----------------------------------|

Main riff (1:54)         
G|---------------| play
D|---------------| main
A|--7-9--9-------| riff
E|-9------7-7-9--|  x8

Outro (2:38)
G|-----------------------------------------------------------------------------|
D|-----------------------------------------------------------------------------|
A|-----------------------------------------------------------------------------|
E|-99--9---99--9---99--9---99--9---99--9---99--9---99--9---99--9---999-9-9-999-|
Suggest correction
Give kudos to tab author, rate the tab!
1 2 3 4 5
comments
print report bad tab
guest
You may want to rate the tab now too:
select rating
Wanna post a correction for this tab? Suggest correction