Oops, an error
Loading. Please wait.

Fez - Being Born Tab

by U2
1,654 views 1 this week
2 commentsread comments
1 2 3 4 5
please rate
add to favorites
launch autoscroll
font size
0
reset
how to read this tab
guitar tuner
Autoscroll
slow
fast
+/-
esc
set tempo
stop
Help us to improve Ultimate-Guitar.com Take our survey!
×
Author
-------------------------------------------------------------------------------
                             fezs-being born - u2
-------------------------------------------------------------------------------
Tabbed by:kenykali
Email:

Tuning:standard
                hope this tab is ok hope you can understand it you can pick up 
                the pattern of song easy any help on guitar 2 below or anything on this page


   time- 1.03
e|------------------------------------|
B|------------------------------------|
G|------------------------------------|
D|-12--12--12--12--12--12--12--12--12-|
A|------------------------------------|
E|-10--10--10--10--10--10--10--10--10-|

   1.18
e|------------------------------------|
B|------------------------------------|
G|------------------------------------|
D|-8--8--8--8--8--8--8--8--8--8--8--8-|
A|------------------------------------|
E|-6--6--6--6--6--6--6--6--6--6--6--6-

   1.23
e|------------------------------------|
B|------------------------------------|
G|------------------------------------|
D|-10-10-10-10-10-10-10-10-10-10-10-10|
A|------------------------------------|
E|-8--8--8--8--8--8--8--8--8--8--8--8-|

   1.26
e|------------------------------------|
B|------------------------------------|
G|------------------------------------|
D|-8--8--8--8--8--8--8--8--8--8--8--8-|
A|------------------------------------|
E|-6--6--6--6--6--6--6--6--6--6--6--6-|
   
   1.34   oh, ah.---            
e|---------------------------------------------------------------------------|
B|-------13--12-------------11--10-------------13--12------------11--10------|
G|-5------------12--10--10---------10--9--9-----------12--10--10-------10----|
D|-5-------------------------------------------------------------------------|
A|-3-------------------------------------------------------------------------|
E|---------------------------------------------------------------------------|
  
                   or you could play this part instead
    1.34          
e|---------------------------------------------------------------------------|
B|---------------------------------------------------------------------------|
G|-5-5-5-5-5-5--3-3-3-3-3-3--5-5-5-5-5-5--3-3-3-3-3-3------------------------|
D|-5-5-5-5-5-5--3-3-3-3-3-3--5-5-5-5-5-5--3-3-3-3-3-3------------------------|
A|-3-3-3-3-3-3--1-1-1-1-1-1--3-3-3-3-3-3--1-1-1-1-1-1------------------------|
E|---------------------------------------------------------------------------|
   1.54   six o clock 
e|------------------------------------|
B|------------------------------------|
G|------------------------------------|
D|-12--12--12--12--12--12--12--12--12-|
A|------------------------------------|
E|-10--10--10--10--10--10--10--10--10-|

   2.09
e|------------------------------------|
B|------------------------------------|
G|------------------------------------|
D|-8--8--8--8--8--8--8--8--8--8--8--8-|
A|------------------------------------|
E|-6--6--6--6--6--6--6--6--6--6--6--6--

   2.14   burning rubber   
e|------------------------------------|
B|------------------------------------|
G|------------------------------------|
D|-12--12--12--12--12--12--12--12--12-|
A|------------------------------------|
E|-10--10--10--10--10--10--10--10--10-|
 
   2,24 
e|------------------------------------|
B|------------------------------------|
G|------------------------------------|
D|-10-10-10-10-10-10-10-10-10-10-10-10|
A|------------------------------------|
E|-8--8--8--8--8--8--8--8--8--8--8--8-|  

   2.27
e|------------------------------------|
B|------------------------------------|
G|------------------------------------|
D|-8--8--8--8--8--8--8--8--8--8--8--8-|
A|------------------------------------|
E|-6--6--6--6--6--6--6--6--6--6--6--6--

   2.35    african sun
e|------------------------------------|
B|------------------------------------|
G|------------------------------------|
D|-10-10-10-10-10-10-10-10-10-10-10-10|
A|------------------------------------|
E|-8--8--8--8--8--8--8--8--8--8--8--8-|  

   2.37 
e|------------------------------------|
B|------------------------------------|
G|------------------------------------|
D|-8--8--8--8--8--8--8--8--8--8--8--8-|
A|------------------------------------|
E|-6--6--6--6--6--6--6--6--6--6--6--6--

   2.45   oh ah ----   
e|---------------------------------------------------------------------------|
B|-------13--12-------------11--10-------------13--12------------11--10------|
G|-5------------12--10--10---------10--9--9-----------12--10--10-------10----|
D|-5-------------------------------------------------------------------------|
A|-3-------------------------------------------------------------------------|
E|---------------------------------------------------------------------------|
  
                   or you could play this part instead
    2.45          
e|---------------------------------------------------------------------------|
B|---------------------------------------------------------------------------|
G|-5-5-5-5-5-5--3-3-3-3-3-3--5-5-5-5-5-5--3-3-3-3-3-3------------------------|
D|-5-5-5-5-5-5--3-3-3-3-3-3--5-5-5-5-5-5--3-3-3-3-3-3------------------------|
A|-3-3-3-3-3-3--1-1-1-1-1-1--3-3-3-3-3-3--1-1-1-1-1-1------------------------|
E|---------------------------------------------------------------------------|

    3.05                                     3.15 
e|---------------------------------------------------------------------------|
B|---------------------------------------------------------------------------|
G|-7--7--7--7--7--7--7--7--7--7--7--7----------------------------------------|
D|-7--7--7--7--7--7--7--7--7--7--7--7---------2--2--2--2--2--2---------------|
A|-5--5--5--5--5--5--5--5--5--5--5--5---------2--2--2--2--2--2---------------|
E|--------------------------------------------0--0--0--0--0--0---------------|

   3.20
e|------------------------------------|
B|------------------------------------|
G|-5--5--5--5--5--5--5--5--5--5-------|
D|-5--5--5--5--5--5--5--5--5--5-------|
A|-3--3--3--3--3--3--3--3--3--3-------|
E|------------------------------------|

   3.26      lights flash past
e|------------------------------------|
B|------------------------------------|
G|------------------------------------|
D|-12--12--12--12--12--12--12--12--12-|
A|------------------------------------|
E|-10--10--10--10--10--10--10--10--10-|

   3.41
e|------------------------------------|
B|------------------------------------|
G|------------------------------------|
D|-8--8--8--8--8--8--8--8--8--8--8--8-|
A|------------------------------------|
E|-6--6--6--6--6--6--6--6--6--6--6--6--


   3.47  a speeding head a speeding heart
e|----------------------------------------|
B|----------------------------------------|
G|----------------------------------------|
D|-12--12--12--12--12--12--12--12--12--12-|
A|----------------------------------------|
E|-10--10--10--10--10--10--10--10--10--10-|

   3.57  
e|----------------------------|
B|----------------------------|
G|----------------------------|
D|-10-10-10-10-10-10-10-10-10-|
A|----------------------------|
E|-8--8--8--8--8--8--8--8--8--|

   4.00 curdling wail
e|----------------------------|
B|----------------------------|
G|----------------------------|
D|-8--8--8--8--8--8--8--8--8--|
A|----------------------------|
E|-6--6--6--6--6--6--6--6--6--

   4.07
e|----------------------------|
B|----------------------------|
G|----------------------------|
D|-10-10-10-10-10-10-10-10-10-|
A|----------------------------|
E|-8--8--8--8--8--8--8--8--8--|  

   4.09  foot  then hearts set sail
e|----------------------------------|
B|----------------------------------|
G|----------------------------------|
D|-8--8--8--8--8--8--8--8--8--8--8--|
A|----------------------------------|
E|-6--6--6--6--6--6--6--6--6--6--6---

    4.17                                     4.27
e|---------------------------------------------------------------------------|
B|---------------------------------------------------------------------------|
G|-7--7--7--7--7--7--7--7--7--7--7--7----------------------------------------|
D|-7--7--7--7--7--7--7--7--7--7--7--7---------2--2--2--2--2--2---------------|
A|-5--5--5--5--5--5--5--5--5--5--5--5---------2--2--2--2--2--2---------------|
E|--------------------------------------------0--0--0--0--0--0---------------|

    4.33                          4,38          4.43       4.46
e|---------------------------------------------------------------------------|
B|---------------------------------1-1-1-1-1---------------------------------|
G|-5--5--5--5--5--5--5--5--5--5----3-3-3-3-3-----4-4-4-4---------------------|
D|-5--5--5--5--5--5--5--5--5--5----3-3-3-3-3-----4-4-4-4----4-4-4-4----------|
A|-3--3--3--3--3--3--3--3--3--3----3-3-3-3-3-----2-2-2-2----4-4-4-4----------|
E|---------------------------------1-1-1-1-1----------------2-2-2-2----------|

    4.49-5.17
e|---------------------------------------------------------------------------|
B|--2-2-2-2-2-2-2------------------------------------------------------------|
G|--2-2-2-2-2-2-2------------------------------------------------------------|
D|--2-2-2-2-2-2-2------------------------------------------------------------|
A|--0-0-0-0-0-0-0------------------------------------------------------------|
E|---------------------------------------------------------------------------|

 
  guitar 2

e|-10--12---13--12--10-----15--13--12--10------------------------------------|
B|----------------------13----------------13-11------------------------------|
G|---------------------------------------------------------------------------|
D|---------------------------------------------------------------------------|
A|---------------------------------------------------------------------------|
E|---------------------------------------------------------------------------|

e|---------------------------------------------------------------------------|
B|-13---12--------------11--10----------13--12------------11--10-------------|
G|---------12--10--10----------10--9-9---------12--10-10---------10----------|
D|---------------------------------------------------------------------------|
A|---------------------------------------------------------------------------|
E|---------------------------------------------------------------------------|


e|-10---12--13--12--10------15--13--12--10-------12--13--15-------------10--------|
B|----------------------13----------------------------------15--13--11-----13--11-|
G|--------------------------------------------------------------------------------|
D|--------------------------------------------------------------------------------|
A|--------------------------------------------------------------------------------|
E|--------------------------------------------------------------------------------|


e|--------------------------------------------------------------------------------|
B|-13---12--------------11--10----------13--12------------11--10------------------|
G|---------12--10--10----------10--9-9---------12--10-10---------10---------------|
D|--------------------------------------------------------------------------------|
A|--------------------------------------------------------------------------------|
E|--------------------------------------------------------------------------------|





**********************************

| /   slide up
| \   slide down
| h   hammer-on
| p   pull-off
| ~   vibrato
| +   harmonic
| x   Mute note
| b   Bend
| pb  Pre-bend
| br  Bend release
| pbr Pre-bend release
| brb Bend release bend

************************************
Suggest correction
Give kudos to tab author, rate the tab!
1 2 3 4 5
comments
print report bad tab
2 comments total.
0 reply
Frusciante19 20 wrote on September 4 2010, 01:43 pm

nice one!!

-1 reply
Frusciante19 20 wrote on January 21 2011, 11:45 am

please could you finish this tab? so far its awesome plz

guest
You may want to rate the tab now too:
select rating
Please do not post tabs as comments. Select "correction" instead!