Oops, an error
Loading. Please wait.

Get On Your Boots Bass Tab

version 1
version 1

Whole song

Interactive

by U2
5,574 views 1 this week
no commentswrite comment
1 2 3 4 5
x 4
add to favorites
launch autoscroll
font size
0
reset
guitar tuner
Autoscroll
slow
fast
+/-
esc
set tempo
stop
Help us to improve Ultimate-Guitar.com Take our survey!
×
Get on your boots - bass tab
By luca


Standard tuning

Main Riff:
G|----------------------------------------|
D|----------------------------------------|
A|-5-3---0-3-0-5------3-0-3----3--0---0---|
E|----------------------------------3-----|


Chorus x 2:
G|------------------------------------|
D|------------------------------------|
A|------------------------------------|
E|-3-3-3-3-3-3-3-3-3-4-4-4-4-4-4-4-4--|

G|------------------------------------|
D|------------------------------------|
A|------------------------------------|
E|-3-3-3-3-3-3-3-3-3-4-4-4-4-4-4-4-4--|

G|------------------------------------|
D|------------------------------------|
A|------------------------------------|
E|-3-3-3-3-3-3-3-3-3-6-6-6-6-6-6-6-6--|

G|------------------------------------|
D|------------------------------------|
A|-6-6-6-6-6-6-6-6-6------------------|
E|-------------------1-1-1-1-1-1-1-1--|


CIAO!!!
Suggest correction
comments
print report bad tab
guest
You may want to rate the tab now too:
select rating
Wanna post a correction for this tab? Suggest correction