Oops, an error
Loading. Please wait.

Get On Your Boots Bass Tab

version 2
version 2

Whole song

Interactive

9,758 views 1 this week
no commentswrite comment
1 2 3 4 5
2 more votes to show rating
add to favorites
launch autoscroll
font size
0
reset
guitar tuner
×
Best way to learn
"Get On Your Boots"
Autoscroll
slow
fast
+/-
esc
set tempo
stop
Main Riff:
G|----------------------------------------|
D|----------------------------------------|
A|-5-3---0-3-0-5------3-0-3----3--0-------|
E|----------------------------------3-3---|


Chorus:
G|-------------------------------------|
D|-------------------------------------|
A|-------------------------------------|
E|-3-3-3-3-3-3-3-3-3-|-4-4-4-4-4-4-4-4-|

G|-------------------------------------|
D|-------------------------------------|
A|-------------------------------------|
E|-3-3-3-3-3-3-3-3-3-|-4-4-4-4-4-4-4-4-|

G|-------------------------------------|
D|-------------------------------------|
A|-------------------------------------|
E|-3-3-3-3-3-3-3-3-3-|-6-6-6-6-6-6-6-6-|

G|-------------------------------------|
D|-------------------------------------|
A|-6-6-6-6-6-6-6-6-6-|-8-8-8-8-8-8-8-8-|
E|-------------------------------------|


That's about all there is.
Suggest correction
Give kudos to tab author, rate the tab!
1 2 3 4 5
comments
print report bad tab
guest
You may want to rate the tab now too:
select rating
Wanna post a correction for this tab? Suggest correction