Oops, an error
Loading. Please wait.

Get On Your Boots Tab

version 4
version 4

Whole song

Interactive

by U2
7,124 views 1 this week
no commentswrite comment
1 2 3 4 5
please rate
add to favorites
launch autoscroll
font size
0
reset
how to read this tab
guitar tuner
Autoscroll
slow
fast
+/-
esc
set tempo
stop
Help us to improve Ultimate-Guitar.com Take our survey!
×
Author
Get on Your Boots
U2


Tabbed by Mike Reimer

Song Order:
==========

Intro: 	-riff A 4x
Verse 1: 	-8 bars with muted strings (ala Vertigo)
                -Riff A x3 with Fill(by gtr II) 
Verse 2: 	-8 bars with muted strings
Chorus: 	-riff B 2x
                -Fill 2
Verse 3:	-8 bars with muted strings
Chorus: 	-riff B 2x
Outro: 	-16 bar drum breakdown 
                – edge fiddling around with phaser and some delay
		-Riff A 7x and fill 3
		-End on D5


Riff A
w/fuzz and digitech whammy set with octave below
e|--------------------------------------------------------|
B|--------------------------------------------------------|
G|--------------------------------------------------------|
D|--------------------------------------------------------|
A|--5-3---3---5-3---3-3-----------------------------------|
E|------5---5-----5-----5-3-5-----------------------------|


Fill 1
w/digitech whammy set with octave above
e|----10----------8---------10----------8-----------------|
B|--------10--7------8--7-------10--7-----8--7------------|
G|--------------------------------------------------------|
D|--------------------------------------------------------|
A|--------------------------------------------------------|
E|--------------------------------------------------------|


Riff B
w/dist. X2
      G   Ab  G   Ab  G   Bb  Eb  F
e|----3---4---3---4---3---6---6---8-------------------|
B|----3---4---3---4---3---6---8---10------------------|
G|----4---5---4---5---4---7---8---10------------------|
D|----5---6---5---6---5---8---8---10------------------|
A|----5---6---5---6---5---8---6---8-------------------|
E|----3---4---3---4---3---6---------------------------|


Fill 2 (end of chorus)
Clean w/delay
e|---------8-----8-----8------------------------------|
B|------9-----8-----7---------------------------------|
G|----------------------------------------------------|
D|----------------------------------------------------|
A|----------------------------------------------------|
E|----------------------------------------------------|


Fill 3 (outro)
Dist.
	                     H P H P H P H P
e|----------------------------------------------------|
B|----------5-7-5-7-5-7-5-7-5-------------------------|
G|----------------------------------------------------|
D|----------------------------------------------------|
A|----------------------------------------------------|
E|----------------------------------------------------|


End

Suggest correction
What's this?
You can suggest a correction to this tab. Community and Mods will review your correction and vote to approve or reject it.
comments
We did not receive enough feedback on this tab! Please rate:
print report bad tab
1 2 3 4 5
guest
You may want to rate the tab now too:
select rating
Please do not post tabs as comments. Select "correction" instead!