Oops, an error
Loading. Please wait.

Gloria Tab

version 1
version 1

Whole song

Interactive

by U2
15,624 views 9 this week
3 commentsread comments
1 2 3 4 5
x 5
add to favorites
launch autoscroll
font size
0
reset
how to read this tab
guitar tuner
Autoscroll
slow
fast
+/-
esc
set tempo
stop
Help us to improve Ultimate-Guitar.com Take our survey!
×
Author
-----------------------------------------------------------------------------
                             GLORIA – U2
-----------------------------------------------------------------------------
Tabbed by: olive14
Email: olive14@u2.com

Tuning: EbAbDbGbBbeb

Live version from “Under A Blood Red Sky” album

Intro
e|-------0-------0-8--------------0-----------------0-----------------------|
B|-----6-------6-----6----------0---0-----0-------0---0---------------------|
G|---7-------7---------7------6-------6---------6-------6-------------------|
D|-7-------7----------------7-----------7-----7-----------------------------|
A|------------------------7-----------------7-------------------------------|
E|--------------------------------------------------------------------------|

Verse
e|--0--0-0-10-12-0--0--0-0-10-12-0--0-12-10-0-14b15r14-12-0-10-0-9-0-10-0---|
B|-10-12-----------10-12-----------10---------------------------------------|
G|--------------------------------------------------------------------------|
D|--------------------------------------------------------------------------|
A|--------------------------------------------------------------------------|
E|--------------------------------------------------------------------------|

e|-12-0-----0--0-0-10-12-0--0--0-0-10-12-0--0-12-10-0-9b10r9-5-0-7-0-10-0---|
B|------10-10-12-----------10-12-----------10-------------------------------|
G|--------------------------------------------------------------------------|
D|--------------------------------------------------------------------------|
A|--------------------------------------------------------------------------|
E|--------------------------------------------------------------------------|

e|-9-0-5-0-7-3-0------------------------------------------------------------|
B|-----------3-0------------------------------------------------------------|
G|-----------4-4------------------------------------------------------------|
D|-----------5-5------------------------------------------------------------|
A|-----------5-5------------------------------------------------------------|
E|-----------3-3------------------------------------------------------------|
Slight variations for verse :
e|--0--0-0-10-12-0--0--0-0-10-12-0--0-12-10-0-14b15r14-12-0-10-0-15-0-12-0--|
B|-10-12-----------10-12-----------10---------------------------------------|

e|-14-0-10-12--0--0-0-10-12-0--0--0-0-10-12-0--0-12-10-0-9b10r9-5-0-7-0-10-0|
B|------------10-12-----------10-12-----------10----------------------------|

e|-9-0-5-0-7-3-0------------------------------------------------------------|
B|-----------3-0------------------------------------------------------------|
G|-----------4-4------------------------------------------------------------|
D|-----------5-5------------------------------------------------------------|
A|-----------5-5------------------------------------------------------------|
E|-----------3-3------------------------------------------------------------|

Chorus
   + + + + + + + + + + + + + + + + + + + + +  + + + + + + + + + + + + +
e|-7------------------------------------------7-5-7-------------7---5-------|
B|---7---------------7--------------------(5)-7-5---7---7---------7---5-----|
G|-----7-----------5---7-------------------5--7-5-----7---7-----------------|
D|-------7-------5-------7-------------5-7----7-5-----------7---------------|
A|---------7---5-----------7-------5-7------------------------7-------------|
E|-----------5---------------7-5-7------------------------------------------|
   + + + +
e|--------------------------------------------------------------------------|
B|--------------------------------------------------------------------------|
G|-------5------------------------------------------------------------------|
D|-----5--------------------------------------------------------------------|
A|---5----------------------------------------------------------------------|
E|-5------------------------------------------------------------------------|

Chorus 2
   + + + + + + + + + + + + + + + + + + + + +  + + + + + + + + + + + + 
e|-7------------------------------------------7-5-7-------------------------|
B|---7---------------7--------------------(5)-7-5---7-----------------------|
G|-----7-----------5---7-------------------5--7-5-----7-------------7-------|
D|-------7-------5-------7-------------5-7----7-5-------7-------7-5---------|
A|---------7---5-----------7-------5-7----------------------7-5-------------|
E|-----------5---------------7-5-7------------------------5-----------------|
   + + + +   + +
e|--------------------------------------------------------------------------|
B|-----------7--------------------------------------------------------------|
G|-------7-----7------------------------------------------------------------|
D|-----7--------------------------------------------------------------------|
A|---7----------------------------------------------------------------------|
E|-7------------------------------------------------------------------------|

Solo (play with volume,feedback and harmonics at the start following chorus)
Solo with bottleneck
   +   +
e|--------------------------------------------------------------------------|
B|--------------------------------------------------------------------------|
G|-----5----12\11\9/full\-/11-11\9-9\7\-/12-12/14-14\12\11\9-9/11\-/11\9----|
D|-7------------------------------------------------------------------------|
A|--------------------------------------------------------------------------|
E|--------------------------------------------------------------------------|

e|------------------12-------------------12\--------------------------------|
B|---------------------12-------12/13\12-12\-After-12-14-12-14-12-----------|
G|-9\7-7\6/7\6-2/4/-------12-------------12\--bass-11-13-11-13-11-----------|
D|---------------------------12----------12\--solo-9--11--9-11--9-----------|
A|--------------------------------------------------------------------------|
E|--------------------------------------------------------------------------|

End

e|--------------------------------------------------------------------------|
B|-12-14-10-5-12-14-12---------------12-14-10-5-12-5------------------------|
G|-11-13-11-6-11-13-11—-3 times then 11-13-11-6-11-6------------------------|
D|--9-11--7-2--9-11--9----------------9-11--7-2--9-2------------------------|
A|--------------------------------------------------------------------------|
E|--------------------------------------------------------------------------|

Hoping this can help

The best page to get Edge’s sound :
http://www.amnesta.net/edge_delay/  Good luck with it !!!

| /  slide up
| \  slide down
| h  hammer-on
| p  pull-off
| ~  vibrato
| +  harmonic
| x  Mute note
=============================================================================
Suggest correction
comments
print report bad tab
3 comments total.
0 reply
blackseptember 50 Apr 18, 2007 02:39 AM

good tab but doesnt the solo start with muting? But this is just a suggestion its an awesome tab, keep up the nice work :)

+1 reply
Zoso518 154 Jun 06, 2008 05:29 PM

good tab but I think this is supposed to be in standard. It sounds different then the actual song.

0 reply
Deathro 67 Jul 08, 2010 04:39 PM

whats the timing of the delay in this one?

guest
You may want to rate the tab now too:
select rating
Wanna post a correction for this tab? Suggest correction