Oops, an error
Loading. Please wait.

Gone Bass Tab

version 1
version 1

Live

Whole song

Interactive

by U2
373 views 1 this week
no commentswrite comment
1 2 3 4 5
3 more votes to show rating
add to favorites
launch autoscroll
font size
0
reset
guitar tuner
Autoscroll
slow
fast
+/-
esc
set tempo
stop
Help us to improve Ultimate-Guitar.com Take our survey!
×
Difficulty
novice
Tabbed By : rif raf
e-mail: 

Tuning:1/2

G|-------------------------------------------------------------------------|
D|-------------------------------------------------------------------------|
A|-7/13/7/12---------------------------------------------------------------|
E|-------------------------------------------------------------------------|

G|-------------------------------------------------------------------------|
D|-------------------------------------------------------------------------|
A|------7-0-5-7-0-5-7---------7-0-5-7-0-5-7----------7-0-5-7-0-5-7---------|
E|-0-0----------------7--0-0-----------------7--0-0----------------7-------|

G|-------------------------------------------------------------------------|
D|-------------------------------------------------------------------------|
A|------7-0-5-7-0-5-7---------7-0-5-7-0-5-7----------7-0-5-7-0-5-7---------|
E|-0-0----------------7--0-0-----------------7--0-0----------------7-------|

G|-------------------------------------------------------------------------|
D|-------------------------------------------------------------------------|
A|------7-0-5-7-0-5-7---------7-0-5-7-0-5-7----------7-0-5-7-0-5-7---------|
E|-0-0----------------7--0-0-----------------7--0-0----------------7-------|

G|-------------------------------------------------------------------------|
D|-------------------------------------------------------------------------|
A|------7-0-5-7-0-5-7---------7-0-5-7-0-5-7----------7-0-5-7-0-5-7---------|
E|-0-0----------------7--0-0-----------------7--0-0----------------7-------|

G|-------------------------------------------------------------------------|
D|-------------------------------------------------------------------------|
A|---------5-5-5-----------------------------------------------------------|
E|-3-3-3-3-------3-3-3-3-3-2-2-2-0-0-0-0---7-8-8-8-8-8-6-8-6---------------|

G|-------------------------------------------------------------------------|
D|-------------------------------------------------------------------------|
A|------------------5-5-5-5-5---5--------------------5-5-5-5-5---5---------|
E|-5-5-5-5-5-7-5-7------------7---7-5-5-5-5-5-7-5-7------------7---7-------|

G|-------------------------------------------------------------------------|
D|-------------------------------------------------------------------------|
A|------------------5-5-5-5-5---5---------7-0-5-7-0-5-7--------------------|
E|-5-5-5-5-5-7-5-7------------7---7--0-0----------------7------------------|

G|-------------------------------------------------------------------------|
D|-------------------------------------------------------------------------|
A|------7-0-5-7-0-5-7---------7-0-5-7-0-5-7---------7-0-5-7-0-5-7----------|
E|-0-0----------------7--0-0----------------7--0-0----------------7--------|

G|-------------------------------------------------------------------------|
D|-------------------------------------------------------------------------|
A|------7-0-5-7-0-5-7---------7-0-5-7-0-5-7---------7-0-5-7-0-5-7----------|
E|-0-0----------------7--0-0----------------7--0-0----------------7--------|

G|-------------------------------------------------------------------------|
D|-------------------------------------------------------------------------|
A|------7-0-5-7-0-5-7---------7-0-5-7-0-5-7---------7-0-5-7-0-5-7----------|
E|-0-0----------------7--0-0----------------7--0-0----------------7--------|

G|-------------------------------------------------------------------------|
D|-------------------------------------------------------------------------|
A|------7-0-5-7-0-5-7---------7-0-5-7-0-5-7--------------------------------|
E|-0-0----------------7--0-0----------------7------------------------------|

G|-------------------------------------------------------------------------|
D|-------------------------------------------------------------------------|
A|---------5-5-5-----------------------------------------------------------|
E|-3-3-3-3-------3-3-3-3-3-2-2-2-0-0-0-0---7-8-8-8-8-8-6-8-6---------------|

G|-------------------------------------------------------------------------|
D|-------------------------------------------------------------------------|
A|-----------------5-5-5-5-5---5-------------------5-5-5-5-5---5-----------|
E|-5-5-5-5-5-7-5-7-----------7---7-5-5-5-5-5-7-5-7-----------7---7---------|

G|-------------------------------------------------------------------------|
D|-------------------------------------------------------------------------|
A|-----------------5-5-5-5-5---5-------------------------------------------|
E|-5-5-5-5-5-7-5-7-----------7---7--0--------------------------------------|


Closer to you every day ...
G|-------------------------------------------------------------------------|
D|-------------------------------------------------------------------------|
A|-------------------------------------------------------------------------|
E|-10-10--10---8-8--8---10-10--10---8-8--8---8-7-5-3-0---------------------|

G|-------------------------------------------------------------------------|
D|-------------------------------------------------------------------------|
A|-------------------------------------------------------------------------|
E|-0-0--0----0-0--0----0-0--0----0-0--0----0-0--0--------------------------|

G|-------------------------------------------------------------------------|
D|-------------------------------------------------------------------------|
A|-------------------------------------------------------------------------|
E|-7/13/7/12---------------------------------------------------------------|

G|-------------------------------------------------------------------------|
D|-------------------------------------------------------------------------|
A|------7-0-5-7-0-5-7---------7-0-5-7-0-5-7---------7-0-5-7-0-5-7----------|
E|-0-0----------------7--0-0----------------7--0-0----------------7--------|

G|-------------------------------------------------------------------------|
D|-------------------------------------------------------------------------|
A|------7-0-5-7-0-5-7-------------5-5-5------------------------------------|
E|-0-0----------------7---3-3-3-3-------3-3-3-3-3-2-2-2-0-0-0-0------------|

G|-------------------------------------------------------------------------|
D|-------------------------------------------------------------------------|
A|--------------------------------------5-5-5-5-5---5----------------------|
E|-7-8-8-8-8-8-6-8-6---5-5-5-5-5-7-5-7------------7---7--------------------|

G|-------------------------------------------------------------------------|
D|-------------------------------------------------------------------------|
A|------------------5-5-5-5-5---5--------------------5-5-5-5-5---5---------|
E|-5-5-5-5-5-7-5-7------------7---7-5-5-5-5-5-7-5-7------------7---7-------|

G|-------------------------------------------------------------------------|
D|-------------------------------------------------------------------------|
A|------------------5-5-5-5-5---5------------------------------------------|
E|-5-5-5-5-5-7-5-7------------7---7----------------------------------------|

G|-------------------------------------------------------------------------|
D|-------------------------------------------------------------------------|
A|-----7-0-5-7-0-5-7--------7-0-5-7-0-5-7--------7-0-5-7-0-5-7-------------|
E|-0-0---------------7--0-0---------------7--0-0---------------7-----------|

G|-------------------------------------------------------------------------|
D|-------------------------------------------------------------------------|
A|-----7-0-5-7-0-5-7--------7-0-5-7-0-5-7--------7-0-5-7-0-5-7-------------|
E|-0-0---------------7--0-0---------------7--0-0----------------7-0--------|







Suggest correction
Give kudos to tab author, rate the tab!
1 2 3 4 5
comments
print report bad tab
guest
You may want to rate the tab now too:
select rating
Wanna post a correction for this tab? Suggest correction