Oops, an error
Loading. Please wait.

Hold Me Thrill Me Kiss Me Kill Me chords

version 1
version 1

Whole song

Interactive

by U2
41,876 views 54 this week
1 commentread comment
1 2 3 4 5
x 7
add to favorites
×
Save as Personal and add changes to this tab that will be seen only by you. Learn more ›
×
You can save this tab as Personal to edit and correct it or add notes. All changes will be seen only by you. Learn more »
launch autoscroll
font size
0
reset
transpose
0
reset
simplify chords
display chords
guitar tuner
backing track
0:00
0:00
edit
Autoscroll
slow
fast
+/-
esc
set tempo
stop
Strumming
There is no strumming pattern for this song yet. and get +5 IQ
Tuning: 1/2 Step Down (Eb Ab Db Gb Bb Eb)

(The intro guitar track is performed with a     
Digitech Whammy-Wah pedal (the early version of the GP-100))
(The 'A' 'G' 'B' 'A(2)' 'F'  and 'G(2)' chords are always done on a 12-string
acoustic throughout the whole song, while the 'B5' 'A5' 'F5' and 'G5' are
always electric. 
On the chorus; The powerchords ('B5' 'A5' 'F5' and 'G5') 
are doubled by their full-chord equivalents ('B' 'A(2)' 'F'  and 'G(2)') 
on acoustic. 
All Chords can be backed by 12-string Acoustic playing the same chord, minus the chorus)

[Electric]
[Verse Chords]
E5 022xxx   Bb5  688xxx
G5 355xxx   A5   577xxx
 
[For 12-String Acoustic]
[Chorus Chords] 
B  799877   A(2) 577655
F  133211   G(2) 355433

[Intro]
E|-----------------------------------|
B|-----------------------------------|
G|-----------------------------------|
D|-----------------------------------|
A|----7--7--7--7--7--7--7--7--7--7---|
E|--0--0--0--0--0--0--0--0--0--0--0--|

[Main Riff]
       E5  D5  B5    G5         E5  D5  B5    F5
E|-------------------------|------------------------|
B|-------------------------|------------------------|
G|--x-x-9-x-7-x-4----------|-x-x-9-x-7-x-4----------|
D|--x-x-9-x-7-x-4-x-x-5-5--|-x-x-9-x-7-x-4-x-x-3-3--|
A|--x-x-7-x-5-x-2-x-x-5-5--|-x-x-7-x-5-x-2-x-x-3-3--|
E|--------------------3-3--|-------------------1-1--|

[Chorus Solo]

     (Repeat 3x)            (Play 4th time)
E|----------------------------------|
B|----------------------------------|
G|----------------------------------|
D|--14p13p11-13/14---10h12p10--10/9-|
A|----------------------------------|
E|----------------------------------|

[Rhythm Guitar]
[Verse 1]
E5
You don't know how you took it
E5
You just know what you got
E5
Oh honey you been stealing from the thieves
E5
And you got caught
E5     A5               G5       
In the headlights, of a stretch car
G5       E5
You're a star

[Verse 2]
E5
Dressing like your sister
E5
Living like a tart
E5
They don't know what you're doing
E5
Babe it must be art
E5       A5             G5 
You're a headache, in a suitcase
G5       A5          
You're a star...

[Begin Chorus Solo]
Our love...
You don't have...
Hold me
Thrill me
Kiss me
Kill me

[Chorus]
A5    G5 
  Our love lights shine
A5          G5
  You don't have to go blind
A5        G5          A5        G5            E5
  Hold me,  thrill me,  kiss me,  kill me...
(End Chorus Solo)

[Break]
E|-----------------------------------|
B|-----------------------------------|
G|-----------------------------------|
D|-----------------------------------|
A|----7--7--7--7--7--7--7--7--7--7---|
E|--0--0--0--0--0--0--0--0--0--0--0--|

[Verse 3]
E5
You don't know how you got here
E5
You just know you want out
E5
Believing in yourself, almost as much as you doubt
E5       A5             G5 
You're a big smash, you wear it like a rash
G5       E5
You're a star

[Start Chorus Solo]
A5    G5 
  Our love lights shine
A5          G5
  You don't have to go blind
A5        G5          A5        G5            E5
  Hold me,  thrill me,  kiss me,  kill me...
(End Chorus Solo)

[Break]
[Main Riff]
       E5  D5  B5    G5         E5  D5  B5    F5
E|-------------------------|------------------------|
B|-------------------------|------------------------|
G|--x-x-9-x-7-x-4----------|-x-x-9-x-7-x-4----------|
D|--x-x-9-x-7-x-4-x-x-5-5--|-x-x-9-x-7-x-4-x-x-3-3--|
A|--x-x-7-x-5-x-2-x-x-5-5--|-x-x-7-x-5-x-2-x-x-3-3--|
E|--------------------3-3--|-------------------1-1--|

[Verse 4]
E5
They want you to be Jesus
E5
Now get down on one knee
E5
But they want their money back if you're alive at 33
E5         A5                        G5
And you're turning tricks, with your crusifix
G5       E5           
You're a star, yes you are

[Start Chorus Solo]
A5    G5 
  Our love lights shine
A5          G5
  You don't have to go blind love
A5        G5          A5        G5            E5
  Hold me,  thrill me,  kiss me,  kill me...
(End Chorus Solo)

[Intro Riff] (x4)
E|-----------------------------------|
B|-----------------------------------|
G|-----------------------------------|
D|-----------------------------------|
A|----7--7--7--7--7--7--7--7--7--7---|
E|--0--0--0--0--0--0--0--0--0--0--0--|

[Outro]
(Main Riff)
       E5  D5  B5    G5         E5  D5  B5    F5
E|-------------------------|------------------------|
B|-------------------------|------------------------|
G|--x-x-9-x-7-x-4----------|-x-x-9-x-7-x-4----------|
D|--x-x-9-x-7-x-4-x-x-5-5--|-x-x-9-x-7-x-4-x-x-3-3--|
A|--x-x-7-x-5-x-2-x-x-5-5--|-x-x-7-x-5-x-2-x-x-3-3--|
E|--------------------3-3--|-------------------1-1--|

            
            
Suggest correction
Creating personal tab
Creating personal tab
You can edit any tab online and save it as your Personal.

You can edit, replace or remove any tab part or add personal notes – all changes will be seen only by you.

Personal tabs can be accessed anytime from any device, even offline.
Learn more »
comments
print report bad tab
1 comment total.
0 reply
benjidude945 123 Apr 09, 2008 02:21 PM

the solo bit sounds off but besides that it's great
the intro bit was done beautifully!

guest
You may want to rate the tab now too:
select rating
Wanna post a correction for this tab? Suggest correction