Oops, an error
Loading. Please wait.

I Still Havent Found What Im Looking For Tab

version 1
version 1

Whole song

Interactive

by U2
134,055 views 69 this week
3 commentsread comments
1 2 3 4 5
accurate
x 31
add to favorites
launch autoscroll
font size
0
reset
how to read this tab
guitar tuner
Tab Pro tools
  • play this tab
  • loop segment
  • change instrument
  • show fretboard
  • metronome
×
Best way to learn
"I Still Havent Found What Im Looking For"
Autoscroll
slow
fast
+/-
esc
set tempo
stop
#----------------------------------PLEASE NOTE---------------------------------#
#This file is the author's own work and represents their interpretation of the #
#song. You may only use this file for private study, scholarship, or research. #
#------------------------------------------------------------------------------##
Date: Sat, 18 Nov 1995 21:56:56 -0500 (EST)
From: Justin Kunz 
Subject: TAB: I Still Haven't Found What I'm Looking For by U2


Taken from the album October
TUNING: Standard, stick a capo on the first fret
Transcribed by Justin Kunz, kunjust@lyco.lycoming.edu
Mail me with any comments, suggestions, or ideas

CHORDS USED (relative to the capo):

Cadd9		x30013
Fadd9		xx3013
Gsus		xx0013
C/F		xx3010
C		x32010

RHYTHM GUITAR:

	Cadd9
I have climbed highest mountains	I have run through the fields
	Fadd9					Cadd9
Only to be with you			Only to be with you

I have run, I have crawled		I have sealed these city walls
	Fadd9					Cadd9
These city walls			Only to be with you
	Gsus			C/F		C
But I still_______ haven't found what I'm looking for
	Gsus			C/F		C
But I still_______ haven't found what I'm looking for
	Cadd9
I have kissed honey lips		Felt the healing fingertips
	Fadd9					Cadd9
It burned like fire			This burning desire

I have spoke with the tongue of angels	I have held the hand of the devil
	Fadd9					Cadd9
It was warm in the night		I was cold as a stone
	Gsus			C/F		C
But I still_______ haven't found what I'm looking for
	Gsus			C/F		C
But I still_______ haven't found what I'm looking for
Cadd9
I believe in the kingdom come		Then all the colors will bleed into one
	Fadd9					Cadd9
Bleed into one				But yes, I'm still runnnin'

Broke the bonds and loosened the chains	Carry the cross of my shame
	Fadd9					Cadd9
Of my shame				You know I believe it
	Gsus			C/F		C
But I still_______ haven't found what I'm looking for
	Gsus			C/F		C
But I still_______ haven't found what I'm looking for


LEAD GUITAR:

p= pick off

E--0-3-3p0----5-3-3-0----0-3-3p0----5-3-3-0----0-------------0------------|
B------------------------------------------------3-1-3-1-1-----3-1-3-1-1--|
G-------------------------------------------------------------------------|
D-------------------------------------------------------------------------|
A-------------------------------------------------------------------------|
E-------------------------------------------------------------------------|
(I have climbed...)			      (Only to be...)

(REPEAT AGAIN FOR VERSE)

E--------3-----1p0--------------------------------------------------------|
B--1--1------------1---------------1-1-1----------------------------------|
G------------------------------2-2----------------------------------------|
D-------------------------------------------------------------------------|
A-------------------------------------------------------------------------|
E-------------------------------------------------------------------------|
(But I still...)	       (...what I'm looking for)


kunjust@lyco.lycoming.edu
comments
print report bad tab
3 comments total.
0 reply
Ridge wrote on April 11 2008, 12:14 pm

THE LEAD GUITAR PART IS AWESOME GUD JOB!!!!!!!!!

+3 reply
TeleFreak80 wrote on December 19 2010, 05:44 am

Taken from the album THE JOSHUA TREE!

0 reply
luke_guitar wrote on August 5 2012, 08:04 pm

I believe the main riff is


E----------------------------5--6--------
B-----6------6----------6---------------
G--3-----3------3--(3)-------------------
D---------------------------------------
A---------------------------------------
E---------------------------------------


With capo on the first fret and a ton of delay

I want to post or [tab]
guest
You may want to rate the tab now too:
select rating
Please do not post tabs as comments. Select "correction" instead!