Oops, an error
Loading. Please wait.
We have Chord Pro version of I Still Havent Found What Im Looking For.
It's the closest thing you can get to the original song and it has interactive parts. Check out the tab »
×
by U2
39,555 views 99 this week
no commentswrite comment
1 2 3 4 5
x 8
add to favorites
×
Save as Personal and add changes to this tab that will be seen only by you. Learn more ›
×
You can save this tab as Personal to edit and correct it or add notes. All changes will be seen only by you. Learn more »
launch autoscroll
font size
0
reset
how to read this tab
guitar tuner
backing track
0:00
0:00
edit
Autoscroll
slow
fast
+/-
esc
set tempo
stop
Author
I Still Haven't Found What I'm Looking For
By Danny 


During the verses play this:
e----------------------------9-------------------------------------------|
b-----10----10--10------10----10--10-------------------------------------|
g---7---7-7---7-------7---7-----7----------------------------------------| 2X
d-0-----------------0----------------------------------------------------|
a------------------------------------------------------------------------|
e------------------------------------------------------------------------|

I have climbed highest mountains
I have run through the fields


e-----------------------------7------------------------------------------|
b-----8-----8---8-------8------8--8--------------------------------------|
g---7---7-7---7-------7---7-----7----------------------------------------| 1X
d-0-----------------0----------------------------------------------------|
a------------------------------------------------------------------------|
e------------------------------------------------------------------------|


Only to be with you

e----------------------------9-------------------------------------------|
b-----10----10--10------10----10--10-------------------------------------|
g---7---7-7---7-------7---7-----7----------------------------------------| 
d-0-----------------0----------------------------------------------------|
a------------------------------------------------------------------------|
e------------------------------------------------------------------------|

Only to be with you
I have run
I have crawled
I have scaled these city walls
These city walls
Only to be with you......


than play  refrain

e------------------------------------------------------------------------|
b-----10----10--10------8-----8--8---------------------------------------|
g---9---9-9---9-------7---7-7--7-----------------------------------------| 
d-7-----------------5----------------------------------------------------|
a------------------------------------------------------------------------|
e------------------------------------------------------------------------|


But I   still  haven't  found         what I'm  looking for
But I   still  haven't  found         what I'm looking for  ... (than back to intro/verses tabs)

~ - vibrato


            
            
Suggest correction
Creating personal tab
Creating personal tab
You can edit any tab online and save it as your Personal.

You can edit, replace or remove any tab part or add personal notes – all changes will be seen only by you.

Personal tabs can be accessed anytime from any device, even offline.
Learn more »
comments
print report bad tab
guest
You may want to rate the tab now too:
select rating
Wanna post a correction for this tab? Suggest correction