Oops, an error
Loading. Please wait.

I Threw A Brick tab

version 2
version 2

Whole song

by U2
2,148 views 15 this week
3 commentsread comments
1 2 3 4 5
x 4
add to favorites
×
Save as Personal and add changes to this tab that will be seen only by you. Learn more ›
×
You can save this tab as Personal to edit and correct it or add notes. All changes will be seen only by you. Learn more »
launch autoscroll
font size
0
reset
how to read this tab
guitar tuner
edit
Autoscroll
slow
fast
+/-
esc
set tempo
stop
Author
-----------------------------------------------------------------------------
                  I THREW A BRICK THROUGH A WINDOW – U2
-----------------------------------------------------------------------------
Tabbed by: olive14      
Email: olive14@u2.com

Tuning: EbAbDbGbBbEb

e|-----------------------------------------------7\-Repeat except-----------|
B|-----------------------------------------------8\-1st note----------------|
G|-----------------------6-----------------------7\-------------------------|
D|---------7---0-----7-----7-------7---0-----7---9\-No slide at the---------|
A|-12\---7---7-----7---7-----7---7---7-----7---7-----end of 2nd time--------|
E|-----0---------0-------------0---------0----------------------------------|

e|-7-10-9-7--8--0-7-10-9-7--8—-0--------------------------------------------|
B|-8--8-8-8--8--0-8--8-8-8--8--0--------------------------------------------|
G|-7--7-7-7--9--9-7--7-7-7--9--9--------------------------------------------|
D|-9--9-9-9-10-10-9--9-9-9-10-10--------------------------------------------|
A|----------10-10----------10-10--------------------------------------------|
E|-----------8--8-----------8--8--------------------------------------------|

e|-7\5-5-5-7\5-5-5-5/7-7-5-5/7-7-7-7\5-5-5-7\5-5-5-5-5-5-5-5-5-5-5\---------|
B|-8\6-6-6-8\6-6-6-6/8-8-6-6/8-8-8-8\6-6-6-8\6-6-6-7-7-7-7-7-7-7-7\--Slide--|
G|-7\5-5-5-7\5-5-5-5/7-7-5-5/7-7-7-7\5-5-5-7\5-5-5-7-7-7-7-7-7-7-7\---up----|
D|-9\7-7-7-9\7-7-7-7/9-9-7-7/9-9-9-9\7-7-7-9\7-7-7-7-7-7-7-7-7-7-7\--second-|
A|-------------------------------------------------5-5-5-5-5-5-5-5\---time--|
E|--------------------------------------------------------------------------|

 Solo with bottleneck

e|--------------------------------------------------------------------------|
B|-------------------------9------12-------------------------9------12------|
G|-9\7-7/9-9\7-7/9-9\7-7/9---9/12----9\7-7/9-9\7-7/9-9\7-7/9---9/12---------|
D|--------------------------------------------------------------------------|
A|--------------------------------------------------------------------------|
E|--------------------------------------------------------------------------|

e|--------------------------------------------------------------------12-12\|
B|------------------------9------12-------------------------9------12----12\|
G|9\7-7/9-9\7-7\4-9\7-7/9---9/12----9\7-7/9-9\7-7/9-9\7-7/9---9/12-------12\|
D|--------------------------------------------------------------------------|
A|--------------------------------------------------------------------------|
E|--------------------------------------------------------------------------|

                            + + + + + + + + + +
e|-------------------------------------5------------------------------------|
B|---------During this part----------5---5----------------------------------|
G|----------with drums-------------5-------5--------------------------------|
D|----------Edge does------------5-----------5------------------------------|
A|---------some harmonics------5---------------5----------------------------|
E|-------------live---------------------------------------------------------|

As always… Hope this is helpful…

If you’d like to get Edge’s sound, check this site :
http://www.amnesta.net/edge_delay/  Good luck with it

| /  slide up
| \  slide down
| h  hammer-on
| p  pull-off
| ~  vibrato
| +  harmonic
| x  Mute note
=============================================================================

            
            
Suggest correction
Creating personal tab
Creating personal tab
You can edit any tab online and save it as your Personal.

You can edit, replace or remove any tab part or add personal notes – all changes will be seen only by you.

Personal tabs can be accessed anytime from any device, even offline.
Learn more »
comments
print report bad tab
3 comments total.
0 reply
bassetrox 344 Jun 05, 2007 02:01 AM

I dont agree with your intro as written...

e|-------------------------------------------------------7\------------|
B|-------------------------------------------------------8\------------|
G|-----------------------6-----------------6-------------7\------------|
D|---------7---0-----7-------0---------7-----0------7----9\------------|
A|-12\---7---7-----7---7--------7----7---7-----7--7---7----------------|
E|-----0---------0-----------------------------------------------------|


e|------------------------------------------------7------------|
B|------------------------------------------------8------------|
G|-----------------------6------------------------7------------|
D|---------7---0-----7-----0-------7---0-----7----9------------|
A|-------7---7-----7---7-----7---7---7-----7---7---------------|
E|---------------0-------------0---------0---------------------|


and variations for the other breaks

other than that good tab, good job on chord voicings

0 reply
bassetrox 344 Jun 05, 2007 02:02 AM

sorry i messed up there too

e|------------------------------------------------7------------|
B|------------------------------------------------8------------|
G|-----------------------6------------------------7------------|
D|---------7---0-----7-----0-------7---0-----7----9------------|
A|-------7---7-----7---7-----7---7---7-----7---7---------------|
E|---------------0-----------------------0---------------------|

0 reply
bassetrox 344 Jun 05, 2007 02:05 AM

oh and its in standard tuning... one of the few songs on the album that is. I may stop commenting on this tab soon...:|

guest
You may want to rate the tab now too:
select rating
Wanna post a correction for this tab? Suggest correction