Oops, an error
Loading. Please wait.

Magnificent Tab

version 1
version 1

Whole song

Interactive

by U2
138,513 views 105 this week
21 commentsread comments
1 2 3 4 5
x 34
add to favorites
launch autoscroll
font size
0
reset
how to read this tab
guitar tuner
Autoscroll
slow
fast
+/-
esc
set tempo
stop
Help us to improve Ultimate-Guitar.com Take our survey!
×
Author
(Synth/Bass)
(do it on guitar if you have an octaver effect!)
e|---------------------------------------------------------|
B|---------------------------------------------------------|
G|---------------------------------------------------------|
D|-/16~---\-4----------------------------------------------|
A|-/16~---\-4----------------------------------------------|
E|-/14~---\-2----------------------------------------------|

(Guitar 2)
(Rhythm Guitar)
(0:20)
e|-0~--------------0~--------------------------------------|
B|-----2~------2~------2~------2~--------------------------|
G|---------4~--------------4~------------------------------|
D|---------------------------------------------------------|
A|---------------------------------------------------------|
E|---------------------------------------------------------|
(Repeat until the other guitar riff comes in) (0:45)

(Lead Synth) 
(arranged for guitar)
(0:29) (x4)
e|----------------------------12-14-12---------------------|
B|-14-14----16-16----12-12-------------16------------------|
G|---------------------------------------------------------|
D|---------------------------------------------------------|
A|---------------------------------------------------------|
E|---------------------------------------------------------|

(Guitar 1 )
(0:45)
     F#m             C#m                    A
e|--|------------------------------------------------------|
B|--|-7~----7~--------7~----7~---9-----9~------------------|
G|-6|----6---------6-----6----------6--------6~----6~------|
D|--|-------------------------------------9-----9----------|
A|--|------------------------------------------------------|
E|--|------------------------------------------------------|

      E                     B           Bsus2 (maybe Bm?? )
e|---------------------------------------------------------|
B|----------------------------------------------0-----0----|
G|----9-----9~----8-----8~--8~--\------------------6-------|
D|-11----11----------9-------------4-4~--------------------|
A|---------------------------------------------------------|
E|---------------------------------------------------------|

(0:58)
     F#m             C#m                    A
e|--|------------------------------------------------------|
B|--|-7~----7~--------7~----7~---9-----9~------------------|
G|-6|----6---------6-----6----------6--------6~----6~------|
D|--|-------------------------------------9-----9----------|
A|--|------------------------------------------------------|
E|--|------------------------------------------------------|

      E                     B           
e|---------------------------------------------------------|
B|---------------------------------------------------------|
G|----9-----9~----8------8~--8~--\-------------------------|
D|-11----11----------11------------4-4~--------------------|
A|---------------------------------------------------------|
E|---------------------------------------------------------|

   B5                          A5               F#m
e|---------------------------------|----------|------------|
B|---------------------------------|----------|------------|
G|---------------------------------|-play-----|------------|
D|-9-9-9-9-9-9-9-9-9-9-9-9-9-9-7-7-|-3-times--|-4----------|
A|-x-x-x-x-x-x-x-x-x-x-x-x-x-x-x-x-|-end-with-|-x----------|
E|-7-7-7-7-7-7-7-7-7-7-7-7-7-7-5-5-|----------|-2----------|

(Guitar 2)
(Backing) 
(fill)
(1:10)
e|---------|
B|-----2~--|
G|--4~-----|
D|---------|
A|---------|
E|---------|

[Verse 1]
(Guitar 2)
   F#m              C#m             A                 E
e|-2---2---2-2-----|4---4--4--4----|5--5-5-5-5--5-5-|(7--7-7-7--7--7)-|
B|-2---2---2-2-----|5---5--5--5-x-x|5--5-5-5-5--5-5-|-9--9-9-9--9--9--|
G|-2---2---2-2-x-x-|6---6--6--6-x-x|6--6-6-6-6--6-6-|-9--9-9-9--9--9--|
D|-4---4---4-4-x-x-|6---6--6--6-x-x|7--7-7-7-7--7-7-|-9--9-9-9--9--9--|
A|-4---4---4-4-x-x-|4---4--4--4-x-x|7--7-7-7-7--7-7-|-7--7-7-7--7--7--|
E|-2---2---2-2-x-x-|---------------|5--5-5-5-5--5-5-|-----------------|

   B             Bm*
e|-7--7-7--7-7-|-7--7-7---7-7-|
B|-7--7-7--7-7-|-7--7-7---7-7-|*
G|-8--8-8--8-8-|-7--7-7---7-7-|
D|-9--9-9--9-9-|-9--9-9---9-9-|
A|-9--9-9--9-9-|-9--9-9---9-9-|
E|-7--7-7--7-7-|-7--7-7---7-7-|

(Guitar 1) 
(Verse fills)
(1:27)
   F#m        C#m        A             E
e|---------------------------------------------------------|
B|-7~---7~-7--9~---9~-9--10~---10~-10--9~---9~--9----------|
G|---------------------------------------------------------|
D|---------------------------------------------------------|
A|---------------------------------------------------------|
E|---------------------------------------------------------|

   B          Bm
e|------------|------------------|
B|-7~---7~-7--|7~---7~-7---------|
G|------------|------------------|
D|------------|-first-ending-----|
A|------------|------------------|
E|------------|------------------|

(Second ending)
(1:50)
   B5                          A5               
e|---------------------------------|----------|
B|---------------------------------|----------|
G|---------------------------------|-play-----|
D|-9-9-9-9-9-9-9-9-9-9-9-9-9-9-7-7-|-3-times--|
A|-x-x-x-x-x-x-x-x-x-x-x-x-x-x-x-x-|-end-with-|
E|-7-7-7-7-7-7-7-7-7-7-7-7-7-7-5-5-|----------|

(Guitar 1)
      E                     B           
e|---------------------------------------------------------|
B|---------------------------------------------------------|
G|----9-----9~----8------8~--8~--\-------------------------|
D|-11----11----------11------------4-4~--------------------|
A|---------------------------------------------------------|
E|---------------------------------------------------------|
        
[Bridge]
(3:39)
   D                       A/C#
e|---------------------------------------------------------|
B|(7--7--7--7--7--7--7--7-)2--2--2--2--2--2--2--2----------|
G|-7--7--7--7--7--7--7--7--2--2--2--2--2--2--2--2----------|
D|-7--7--7--7--7--7--7--7--2--2--2--2--2--2--2--2----------|
A|-5--5--5--5--5--5--5--5--4--4--4--4--4--4--4--4----------|
E|---------------------------------------------------------| 

   C#                      F#
e|-------------------------2--------------------------------|
B|(6--6--6--6--6--6--6--6)-2--------------------------------|
G|-6--6--6--6--6--6--6--6--3--------------------------------|
D|-6--6--6--6--6--6--6--6--4--------------------------------|
A|-4--4--4--4--4--4--4--4--4--------------------------------|
E|-------------------------2--------------------------------| 

(Guitar 2)
(Rhythm Guitar)
(3:45) 
(fades in with the same riff from the intro)
e|-0~--------------0~--------------------------------------|
B|-----2~------2~------2~------2~--------------------------|
G|---------4~--------------4~------------------------------|
D|---------------------------------------------------------|
A|---------------------------------------------------------|
E|---------------------------------------------------------|

(Guitar 1) 
(Lead Guitar) 
(3:54) starts fading in to build up to the solo, it sounds
 like the Edge is just doing sixteenth note rakes like he 
is famous for doing, though if you want you can do the
 B octave again.
e|---------------------------------|
B|---------------------------------|
G|-x-x-x-x-x-x-x-x-x-x-x-x-x-x-x-x-|
D|-x-x-x-x-x-x-x-x-x-x-x-x-x-x-x-x-|
A|-x-x-x-x-x-x-x-x-x-x-x-x-x-x-x-x-|
E|---------------------------------|

[Solo]
(Guitar 3) 
(Slide Guitar)
(Chords are strummed by Guitar 2)
(4:02)
   F#m            C#m           A               E
e|----------------------------------------------------|
B|-12/14~---12\10-10/14~--------12/14~----12/10-/14---|
G|-.--------.-----.-------------.---------.-----------|
D|----------------------------------------------------|
A|----------------------------------------------------|
E|----------------------------------------------------|  
        
             B              Bm             
e|-------------------------------------|
B|-12~--\10--10/12\10--\7~-------------|
G|-.---------.-------------------------| (x2)
D|-------------------------------------|
A|-------------------------------------|
E|-------------------------------------|

[Chorus 3]
(Guitar 1)
(5:02)
   B A   B  A  B  A B   B  A  B
   1   2    3  4   1   2    3  4
e|---------------|---------------|
B|---------------|---------------|
G|---------------|---------------|
D|-9-7---9--7--9-|-9-7---9--7--9-|
A|-x-x---x--x--x-|-x-x---x--x--x-|
E|-7-5---7--5--7-|-7-5---7--5--7-|

[Ending]
   F#m
e|----|
B|----|
G|----|
D|-4--|
A|-x--|
E|-2--|


************************************

| /  Slide up
| \  Slide down
| ~  Vibrato
| x  Dead note

************************************
Suggest correction
comments
print report bad tab
21 comments total. Showing first comments.
+1 reply
johnsz 36 Feb 25, 2009 03:44 PM

great tab. ever since this leaked out, i've been waiting for a tab to come out to this song.. this is so awesome, thanks!!

0 reply
jchitty 217 Feb 26, 2009 02:59 PM

hey no problem man! I'm glad you found it a good tab. This really is the sick classic Edge song off the album, isn't it? Such an awesome riff!

0 reply
johnsz 36 Feb 26, 2009 07:48 PM

the riff is so awesome, its very classic Edge in this song.. another song that I've really enjoyed playing is Stand Up Comedy. do you play a lot of U2?

guest
You may want to rate the tab now too:
select rating
Wanna post a correction for this tab? Suggest correction