Oops, an error
Loading. Please wait.

New Years Day Bass Tab

version 1
version 1

Whole song

Interactive

37,026 views 54 this week
2 commentsread comments
1 2 3 4 5
x 19
add to favorites
launch autoscroll
font size
0
reset
guitar tuner
×
Best way to learn
"New Years Day"
Autoscroll
slow
fast
+/-
esc
set tempo
stop
Author
Difficulty
  follow
novice
Song: New Year's Day
Artist: U2
Album: War

Tuning: tune down 1/2 step

Main Riff
G|---------------------------------------------------------------|
D|-------10---------------2--------------5--------------5--------|
A|-12-12----12--12-12/3-3---3--3-3/7-7-7---7--7-7-0-7-7---7--7-7\|
E|---------------------------------------------------------------|

Variation (play at 00:18 and 03:11)
G|-------------------|
D|-------------------|
A|-10*-8*-12*-10*-8*-|
E|-------------------|

Chorus
G|----------------|
D|----------------|
A|-10*-12*-10*-8*-|
E|----------------|


/  slide up
\  slide down
*  repeat note
Suggest correction
comments
print report bad tab
2 comments total.
+4 reply
jholmes98 65 Jan 28, 2013 10:30 AM

seeming as its bass and not guitar you might as well play it a semitone lower, like:
G|---------------------------------------------------------------|
D|-------9---------------1--------------4--------------4--------|
A|-11-11----11--11-11/2-2---2--2-2/6-6-6---6--6-6--6-6---6--6-6/|
E|------------------------------------------------4--------------|

0 reply
kevomatic 10 Jul 25, 2014 02:59 PM

It says it's tuned down a half step, but then has EADG on the lines. Contradictory and inconsistent.

guest
You may want to rate the tab now too:
select rating
Wanna post a correction for this tab? Suggest correction