Oops, an error
Loading. Please wait.

New York tab

version 1
version 1

Whole song

Interactive

by U2
3,581 views 6 this week
1 commentread comment
1 2 3 4 5
x 3
add to favorites
×
Save as Personal and add changes to this tab that will be seen only by you. Learn more ›
×
You can save this tab as Personal to edit and correct it or add notes. All changes will be seen only by you. Learn more »
launch autoscroll
font size
0
reset
how to read this tab
guitar tuner
backing track
0:00
0:00
edit
Autoscroll
slow
fast
+/-
esc
set tempo
stop
Author
-------------
New York
-------------

Tab  By   Filippo  Donati

Album: All that you can't leave behind


The first riff that edge play is

With chorus:

e----------------------------------------------------------------------------------
B------------8----------8----------8---------8---------10---------10-------8-------
G------9----------9----------7----------7---------9----------9---------9-----------


Now in the chorus, Edge with distorsion:

      A5                       G5            C
g---9----9-----9-----7----7---7---7-----9----9----9---7----7----7-------
d-----------------------------------------------------------------------
a---7----7-----7-----5----5---5---5-----7----7----7---5----5----5-------
e-----------------------------------------------------------------------

And after, during the rock moment:

e---------------------------------------------------------------------
B-------8----10----12----10--s--8--------8----10----12-----10---------
G----9------------------------------9----------------------------9----
D---------------------------------------------------------------------

The chords are in every moment:

A,  G,  C.

In the final change:

G---5---5---5--4---4----12--12---12---14--14--14---14—14----------------
D-----------------------------------------------------------------------
A---3---3---3--2---2----10--10---10---12--12--12---10--10---------------
E-----------------------------------------------------------------------

In New York freedom looks like too many choices
In New York I found a friend to drown out the other voices
Voices on the cell phone
Voices from home
Voices of the hard sell
Voices down the stairwell
In New York, just got a place in New York 

In New York summers get hot
Well into the hundreds
You can't walk around the block
Without a change of clothing
Hot as a hair dryer in your face
Hot as a handbag and a can of mace
In New York, I just got a place in New York
New York, New York

In New York you can forget
Forget how to sit still
Tell yourself you will stay in
But it's down to Alphaville

New York, New York, New York
New York, New York, New York

The Irish have been coming here for years
Feel like they own the place
They got the airport, city hall, concrete
Asphalt, they even got the police
Irish, Italians, Jews and Hispanics
Religious nuts, political fanatics in the stew,
Living happily not like me and you
That's where I lost you... New York 

New York, New York
New York, New York

In New York I lost it all to you and your vices
Still I'm staying on to figure out my mid life crisis
I hit an iceberg in my life
But you know I'm still afloat
You lose your balance, lose your wife
In the queue for the lifeboat

You got to put the women and children first
But you've got an unquenchable thirst for New York

New York, New York
New York, New York

n the stillness of the evening
When the sun has had its day
I heard your voice a-whispering
Come away child

New York, New York 


For any question sen me at

Filippou2@libero.it



Suggest correction
Creating personal tab
Creating personal tab
You can edit any tab online and save it as your Personal.

You can edit, replace or remove any tab part or add personal notes – all changes will be seen only by you.

Personal tabs can be accessed anytime from any device, even offline.
Learn more »
Give kudos to tab author, rate the tab!
1 2 3 4 5
comments
print report bad tab
1 comment total.
0 reply
Reisgar42 75 Mar 26, 2009 06:03 PM

If you were to tab this for all six lines, more people may like it. From what it sounds like, you have the tune down, but it's terribly organized.

guest
You may want to rate the tab now too:
select rating
Wanna post a correction for this tab? Suggest correction