Oops, an error
Loading. Please wait.

No Line On The Horizon tab

version 2
version 2

Whole song

Interactive

by U2
1,838 views 9 this week
no commentswrite comment
1 2 3 4 5
3 more votes to show rating
add to favorites
×
Save as Personal and add changes to this tab that will be seen only by you. Learn more ›
×
You can save this tab as Personal to edit and correct it or add notes. All changes will be seen only by you. Learn more »
launch autoscroll
font size
0
reset
how to read this tab
guitar tuner
backing track
0:00
0:00
edit
Autoscroll
slow
fast
+/-
esc
set tempo
stop
Author
Difficulty
-------------------------------------------------------------------------------
                             no line on the horizon  u2
-------------------------------------------------------------------------------
Tabbed by:kenykali
Email:

                 hope you can work this one out with the timming


Tuning:



    intro
e|---------------------------------------------------------------------------|
B|---------------------------------------------------------------------------|
G|---------------------------------------------------------------------------|
D|---------------------------------------------------------------------------|
A|--7------------7-7---7------------------7-7--7-------7---------------------|
E|---------------------------------------------------------------------------|

e|---------------------------------------------------------------------------|
B|---------------------------------------------------------------------------|
G|---------------------------------------------------------------------------|
D|---------------------------------------------------------------------------|
A|--------------------------------7--7--7------------------------------------|
E|--4----4----4----4---4-----------------------------------------------------|


   l know a girl                                whos like the sea



e|---------------------------------------------------------------------------|
B|---------------------------------------------------------------------------|
G|-1-1-1-1-1-1-1-1-1-1-1-1-1-1-1-1-1-1-1-1-1-1-1-1-1-1-1-1-1-1-1-1-1-1-1-----|
D|-2-2-2-2-2-2-2-2-2-2-2-2-2-2-2-2-2-2-2-2-2-2-2-2-2-2-2-2-2-2-2-2-2-2-2-----|
A|-2-2-2-2-2-2-2-2-2-2-2-2-2-2-2-2-2-2-2-2-2-2-2-2-2-2-2-2-2-2-2-2-2-2-2-----|
E|-0-0-0-0-0-0-0-0-0-0-0-0-0-0-0-0-0-0-0-0-0-0-0-0-0-0-0-0-0-0-0-0-0-0-0-----|

   l watch her changing                      every day for me

e|---------------------------------------------------------------------------|
B|---------------------------------------------------------------------------|
G|-1-1-1-1-1-1-1-1-1-1-1-1-1-1-1-1-1-1-1-1-1-1-1-1-1-1-1-1-1-1-1-1-1-1-1-----|
D|-2-2-2-2-2-2-2-2-2-2-2-2-2-2-2-2-2-2-2-2-2-2-2-2-2-2-2-2-2-2-2-2-2-2-2-----|
A|-2-2-2-2-2-2-2-2-2-2-2-2-2-2-2-2-2-2-2-2-2-2-2-2-2-2-2-2-2-2-2-2-2-2-2-----|
E|-0-0-0-0-0-0-0-0-0-0-0-0-0-0-0-0-0-0-0-0-0-0-0-0-0-0-0-0-0-0-0-0-0-0-0-----|


  oh yeah                                   oh oh

e|---------------------------------------------------------------------------|
B|---------------------------------------------------------------------------|
G|-5-5-5-5-5-5-5-5-5-5-5-5-5-5-5-5-5-5-5-5-5-5-5-5-5-5-5-5-5-5-5-5-5-5-5-5---|
D|-6-6-6-6-6-6-6-6-6-6-6-6-6-6-6-6-6-6-6-6-6-6-6-6-6-6-6-6-6-6-6-6-6-6-6-6---|
A|-6-6-6-6-6-6-6-6-6-6-6-6-6-6-6-6-6-6-6-6-6-6-6-6-6-6-6-6-6-6-6-6-6-6-6-6---|
E|-4-4-4-4-4-4-4-4-4-4-4-4-4-4-4-4-4-4-4-4-4-4-4-4-4-4-4-4-4-4-4-4-4-4-4-4---|


  one day she still                          the next she swells


e|---------------------------------------------------------------------------|
B|---------------------------------------------------------------------------|
G|-1-1-1-1-1-1-1-1-1-1-1-1-1-1-1-1-1-1-1-1-1-1-1-1-1-1-1-1-1-1-1-1-1-1-1-----|
D|-2-2-2-2-2-2-2-2-2-2-2-2-2-2-2-2-2-2-2-2-2-2-2-2-2-2-2-2-2-2-2-2-2-2-2-----|
A|-2-2-2-2-2-2-2-2-2-2-2-2-2-2-2-2-2-2-2-2-2-2-2-2-2-2-2-2-2-2-2-2-2-2-2-----|
E|-0-0-0-0-0-0-0-0-0-0-0-0-0-0-0-0-0-0-0-0-0-0-0-0-0-0-0-0-0-0-0-0-0-0-0-----|

  you can hearthe universe in                she shells 


e|---------------------------------------------------------------------------|
B|---------------------------------------------------------------------------|
G|-1-1-1-1-1-1-1-1-1-1-1-1-1-1-1-1-1-1-1-1-1-1-1-1-1-1-1-1-1-1-1-1-1-1-1-----|
D|-2-2-2-2-2-2-2-2-2-2-2-2-2-2-2-2-2-2-2-2-2-2-2-2-2-2-2-2-2-2-2-2-2-2-2-----|
A|-2-2-2-2-2-2-2-2-2-2-2-2-2-2-2-2-2-2-2-2-2-2-2-2-2-2-2-2-2-2-2-2-2-2-2-----|
E|-0-0-0-0-0-0-0-0-0-0-0-0-0-0-0-0-0-0-0-0-0-0-0-0-0-0-0-0-0-0-0-0-0-0-0-----|

 oh yeah                                   oh oh

e|---------------------------------------------------------------------------|
B|---------------------------------------------------------------------------|
G|-5-5-5-5-5-5-5-5-5-5-5-5-5-5-5-5-5-5-5-5-5-5-5-5-5-5-5-5-5-5-5-5-5-5-5-5---|
D|-6-6-6-6-6-6-6-6-6-6-6-6-6-6-6-6-6-6-6-6-6-6-6-6-6-6-6-6-6-6-6-6-6-6-6-6---|
A|-6-6-6-6-6-6-6-6-6-6-6-6-6-6-6-6-6-6-6-6-6-6-6-6-6-6-6-6-6-6-6-6-6-6-6-6---|
E|-4-4-4-4-4-4-4-4-4-4-4-4-4-4-4-4-4-4-4-4-4-4-4-4-4-4-4-4-4-4-4-4-4-4-4-4---|


e|---------------------------------------------------------------------------|
B|---------------------------------------------------------------------------|
G|-1-1-1-1-1-1-1-1-1-1-1-1-1-1-1-1-1-1-1-1-1-1-1-1-1-1-1-1-1-1-1-1-1-1-1-----|
D|-2-2-2-2-2-2-2-2-2-2-2-2-2-2-2-2-2-2-2-2-2-2-2-2-2-2-2-2-2-2-2-2-2-2-2-----|
A|-2-2-2-2-2-2-2-2-2-2-2-2-2-2-2-2-2-2-2-2-2-2-2-2-2-2-2-2-2-2-2-2-2-2-2-----|
E|-0-0-0-0-0-0-0-0-0-0-0-0-0-0-0-0-0-0-0-0-0-0-0-0-0-0-0-0-0-0-0-0-0-0-0-----|





   no line on the horizon                      

e|---------------5----------------------------|
B|---5---7---8--------8--7--8--7---5----------|
G|--------------------------------------4-----|
D|--------------------------------------------|
A|--------------------------------------------|
E|--------------------------------------------|

   l know a girl                                hole in here heart 

e|---------------------------------------------------------------------------|
B|---------------------------------------------------------------------------|
G|-9--9--9--9--9--9--9--9--9--9--9----7--9--9--9--9--9--9--9--9--9--9--9-----|
D|---------------------------------------------------------------------------|
A|-7--7--7--7--7--7--7--7--7--7--7----5--7--7--7--7--7--7--7--7--7--7--7-----|
E|---------------------------------------------------------------------------|

   she said infinty              a great place to start

e|---------------------------------------------------------------------------|
B|---------------------------------------------------------------------------|
G|-9--9--9--9--9--9--9--9--9--9--9----7--9--9--9--9--9--9--9--9--9--9--9-----|
D|---------------------------------------------------------------------------|
A|-7--7--7--7--7--7--7--7--7--7--7----5--7--7--7--7--7--7--7--7--7--7--7-----|
E|---------------------------------------------------------------------------|


oh  yeah                                 oh oh

e|---------------------------------------------------------------------------|
B|---------------------------------------------------------------------------|
G|-5-5-5-5-5-5-5-5-5-5-5-5-5-5-5-5-5-5-5-5-5-5-5-5-5-5-5-5--9-9-9-9-9-9-9-9--|
D|-6-6-6-6-6-6-6-6-6-6-6-6-6-6-6-6-6-6-6-6-6-6-6-6-6-6-6-6-------------------|
A|-6-6-6-6-6-6-6-6-6-6-6-6-6-6-6-6-6-6-6-6-6-6-6-6-6-6-6-6--7-7-7-7-7-7-7-7--|
E|-4-4-4-4-4-4-4-4-4-4-4-4-4-4-4-4-4-4-4-4-4-4-4-4-4-4-4-4-------------------|


   time is inrelevent                          its not linear
  
e|---------------------------------------------------------------------------|
B|---------------------------------------------------------------------------|
G|-9--9--9--9--9--9--9--9--9--9--9----7--9--9--9--9--9--9--9--9--9--9--9-----|
D|---------------------------------------------------------------------------|
A|-7--7--7--7--7--7--7--7--7--7--7----5--7--7--7--7--7--7--7--7--7--7--7-----|
E|---------------------------------------------------------------------------|

   then she put her tongue                      in my here

e|---------------------------------------------------------------------------|
B|---------------------------------------------------------------------------|
G|-9--9--9--9--9--9--9--9--9--9--9----7--9--9--9--9--9--9--9--9--9--9--9-----|
D|---------------------------------------------------------------------------|
A|-7--7--7--7--7--7--7--7--7--7--7----5--7--7--7--7--7--7--7--7--7--7--7-----|
E|---------------------------------------------------------------------------|

  oh  yeah                                 oh oh

e|---------------------------------------------------------------------------|
B|---------------------------------------------------------------------------|
G|-5-5-5-5-5-5-5-5-5-5-5-5-5-5-5-5-5-5-5-5-5-5-5-5-5-5-5-5--9-9-9-9-9-9-9-9--|
D|-6-6-6-6-6-6-6-6-6-6-6-6-6-6-6-6-6-6-6-6-6-6-6-6-6-6-6-6-------------------|
A|-6-6-6-6-6-6-6-6-6-6-6-6-6-6-6-6-6-6-6-6-6-6-6-6-6-6-6-6--7-7-7-7-7-7-7-7--|
E|-4-4-4-4-4-4-4-4-4-4-4-4-4-4-4-4-4-4-4-4-4-4-4-4-4-4-4-4-------------------|



e|---------------------------------------------------------------------------|
B|---------------------------------------------------------------------------|
G|-9--9--9--9--9--9--9--9--9--9--9----7--9--9--9--9--9--9--9--9--9--9--9-----|
D|---------------------------------------------------------------------------|
A|-7--7--7--7--7--7--7--7--7--7--7----5--7--7--7--7--7--7--7--7--7--7--7-----|
E|---------------------------------------------------------------------------|



  no line on the horizon                       no line on the horizon

e|---------------5-----------------------------------------5----------------------7-----|
B|---5---7---8--------8--7--8--7---5-----------5-----7--8------8--7---8---7---5---------|
G|--------------------------------------4-----------------------------------------------|
D|--------------------------------------------------------------------------------------|
A|--------------------------------------------------------------------------------------|
E|--------------------------------------------------------------------------------------|



     ah   ah    ah   ah                           ah  ah

e|---------------------------------------------------------------------------|
B|---------------------------------------------------------------------------|
G|---------------------------------------------------------------------------|
D|---------------------------------------------------------------------------|
A|----------------------------0----------0--------2------4-----6----7------9-|
E|-0---------2---------4-----------------------------------------------------|


     ah ah ah                      ah           the songs in your head            

e|---------------------------------------------------------------------------|
B|---------------------------------------------------------------------------|
G|---------------------------------------------------------------------------|
D|---------------------------------------------------------------------------|
A|--11--------12-------12/14----14/16----16\---------------------------------|
E|------------------------------------------------2---------2------2-------0-|


   are  now in my mind   you put me on pause      try to rewind

e|---------------------------------------------------------------------------|
B|---------------------------------------------------------------------------|
G|---------------------------------------------------------------------------|
D|---------------------------------------------------------------------------|
A|--------------------2-------0----------------------------------------------|
E|--2----0-----2------------------------4--------2-----3------3/10-----10----|


               and replay           hey hey  

e|---------------------------------------------------------------------------|
B|---------------------------------------------------------------------------|
G|---------------------------------------------------------------------------|
D|---------------------------------------------------------------------------|
A|---------------------------------------------------------------------------|
E|--9-----9-----7------------------7--7/-19-19--19--19--------19\------------|


     every night  l    have the same dream   and    am hatching  some  plot

e|---------------------------------------------------------------------------|
B|---------------------------------------------------------------------------|
G|---------------------------------------------------------------------------|
D|---------------------------------------------------------------------------|
A|---------------------------------------------------------------------------|
E|---------------------------------------------------------------------------|
    

   scheming some schame  oh yeah                oh oh

e|---------------------------------------------------------------------------|
B|---------------------------------------------------------------------------|
G|---------------------------------------------------------------------------|
D|---------------------------------------------------------------------------|
A|---------------------------------------------------------------------------|
E|---------------------------------------------------------------------------|

    lm a traffic cop                        ru du marais

e|---------------------------------------------------------------------------|
B|---------------------------------------------------------------------------|
G|-9--9--9--9--9--9--9--9--9--9--9----7--9--9--9--9--9--9--9--9--9--9--9-----|
D|---------------------------------------------------------------------------|
A|-7--7--7--7--7--7--7--7--7--7--7----5--7--7--7--7--7--7--7--7--7--7--7-----|
E|---------------------------------------------------------------------------|

            
        the sirens wailing buts its me that whats to get away 

e|---------------------------------------------------------------------------|
B|---------------------------------------------------------------------------|
G|-9--9--9--9--9--9--9--9--9--9--9----7--9--9--9--9--9--9--9--9--9--9--9-----|
D|---------------------------------------------------------------------------|
A|-7--7--7--7--7--7--7--7--7--7--7----5--7--7--7--7--7--7--7--7--7--7--7-----|
E|---------------------------------------------------------------------------|

                                                    oh oh oh oh

e|---------------------------------------------------------------------------|
B|---------------------------------------------------------------------------|
G|-5-5-5-5-5-5-5-5-5-5-5-5-5-5-5-5-5-5-5-5-5-5-5-5-5-5-5-5--9-9-9-9-9-9-9-9--|
D|-6-6-6-6-6-6-6-6-6-6-6-6-6-6-6-6-6-6-6-6-6-6-6-6-6-6-6-6-------------------|
A|-6-6-6-6-6-6-6-6-6-6-6-6-6-6-6-6-6-6-6-6-6-6-6-6-6-6-6-6--7-7-7-7-7-7-7-7--|
E|-4-4-4-4-4-4-4-4-4-4-4-4-4-4-4-4-4-4-4-4-4-4-4-4-4-4-4-4-------------------|


|---------------------------------------------------------------------------|
B|---------------------------------------------------------------------------|
G|-9--9--9--9--9--9--9--9--9--9--9----7--9--9--9--9--9--9--9--9--9--9--9-----|
D|---------------------------------------------------------------------------|
A|-7--7--7--7--7--7--7--7--7--7--7----5--7--7--7--7--7--7--7--7--7--7--7-----|
E|---------------------------------------------------------------------------|



 no line on the horizon                       no line on the horizon

e|---------------5-----------------------------------------5----------------------7-----|
B|---5---7---8--------8--7--8--7---5-----------5-----7--8------8--7---8---7---5---------|
G|--------------------------------------4-----------------------------------------------|
D|--------------------------------------------------------------------------------------|
A|--------------------------------------------------------------------------------------|
E|--------------------------------------------------------------------------------------|


e|-------------------------------------4--------------------------------------|
B|------------------------------------------5---------------------------------|
G|---6---4----------------6-----4--------------------6----4-------------------|
D|------------6-----------------------------------------------6---------------|
A|----------------7------------------------------------------------7----------|
E|----------------------------------------------------------------------------|

e|------------4---------------------------------------------------------------|
B|-----------------5----------------------------------------------------------|
G|--6---4------------------5----3--------------5----3-------------------------|
D|------------------------------------6--------------------6------------------|
A|----------------------------------------6--------------------6--------------|
E|----------------------------------------------------------------------------|


e|--------------------------------4--------------------4-----------------------|
B|------------------------------------5---------------------5------------------|
G|--6---4---------------6---4------------------6---4---------------------------|
D|-----------6-----------------------------------------------------------------|
A|----------------7------------------------------------------------------------|
E|-----------------------------------------------------------------------------|

            
            
Suggest correction
Creating personal tab
Creating personal tab
You can edit any tab online and save it as your Personal.

You can edit, replace or remove any tab part or add personal notes – all changes will be seen only by you.

Personal tabs can be accessed anytime from any device, even offline.
Learn more »
Give kudos to tab author, rate the tab!
1 2 3 4 5
comments
print report bad tab
guest
You may want to rate the tab now too:
select rating
Wanna post a correction for this tab? Suggest correction