Oops, an error
Loading. Please wait.

One Tab

version 1
version 1

Whole song

Interactive

Video

by U2
115,668 views 81 this week
5 commentsread comments
1 2 3 4 5
x 11
add to favorites
launch autoscroll
font size
0
reset
how to read this tab
guitar tuner
backing track
0:00
0:00
×
Best way to learn
"One"
Autoscroll
slow
fast
+/-
esc
set tempo
stop
Author
   one tab by u2  acoustic live

|--------------------------------------------------|
|-------5-------5----------------------------------|
|-------5-7p5h7-5----5h7p5-------------------------|
|-----------------------------------12-10h12p10-12-|
|-----------------------------------12-10h12p10-12-|
|-3/5-------------------------8/10-----------------|

|---0-------0--------------------------|
|---1-3p1h3-1-1h3p1-----3----------3---|
|---2----------------/4-4-4h5p4h5--4---|
|-3------------------/5------------5---|
|--------------------------------------|
|--------------------------------------|


steve  pompom020366@hotmail.com     pompom@sympatico.ca
Suggest correction
comments
print report bad tab
5 comments total. Showing first comments.
0 reply
RS-GUITARIST 114 Jun 04, 2006 07:23 AM

this looks perfect

+1 reply
PunkInDrublic 10 Jun 08, 2006 08:15 AM

like it

0 reply
mbasketcballb 52 Aug 23, 2007 05:27 PM

good

guest
You may want to rate the tab now too:
select rating
Wanna post a correction for this tab? Suggest correction