Oops, an error
Loading. Please wait.

One Tab

version 2
version 2

Whole song

Interactive

Video

69,955 views 36 this week
1 commentread comment
1 2 3 4 5
x 13
add to favorites
launch autoscroll
font size
0
reset
how to read this tab
guitar tuner
backing track
0:00
0:00
×
Best way to learn
"One"
Autoscroll
slow
fast
+/-
esc
set tempo
stop
[Intro]
e|-------------------------------------------------------------------------|
B|-------------------------------------------------------------------------|
G|---------5/9-7-9-7-9----7-5-7-5-7-7--9-7-9-7-9-7-------------------------|
D|-5h7-----------------7--7-5-7-5-7-7--7-7-7-7-7-7--7/9 -10- 9-10 9--10- 9-| (x5)
A|-----0---------------5------------8---------------8/10-10-10-10-10-10-10-|
E|-------------------------------------------------------------------------|
(last 3x played, above is adapted a bit)

e|-------------------------------------------------------------|
B|-1/5-5-5-3-2-1---1/5-5-5-3-1----1/5-5-5-3-2-1--1/5-5-5-3-2-3-|
G|-----------------------------2-------------------------------|
D|-------------------------------------------------------------|  (x2)
A|-------------------------------------------------------------|
E|-------------------------------------------------------------|

e|-----------------------------------------------------------|
B|-1/5---3-2-1-----1/5---3-1-----1/5---3-2-1-----1/5---3-2-3-|
G|---------------------------2-------------------------------|
D|-----------------------------------------------------------|  (x4)
A|-----------------------------------------------------------|
E|-----------------------------------------------------------|

[Solo]
e|----------------------|
B|-/7-5-5-7-7-5-5-6-6-7-|
G|----------------------|
D|----------------------|
A|----------------------|
E|----------------------|

[Outro]
e|----12-------------12-------------12-------------12-13-12-|
B|-15----15-13-13-15----15-13-13-15----15-13-13-15----------|
G|----------------------------------------------------------|
D|----------------------------------------------------------|
A|----------------------------------------------------------|
E|----------------------------------------------------------|
(repeat outro until end, and end on first note.)


************************************

| /  Slide up
| h  Hammer-on
   

************************************
Suggest correction
comments
print report bad tab
1 comment total.
0 reply
Frusciante19 20 Apr 11, 2011 11:23 AM

man this is complete bs

guest
You may want to rate the tab now too:
select rating
Wanna post a correction for this tab? Suggest correction