Oops, an error
Loading. Please wait.

Please Tab

version 2
version 2

Whole song

by U2
6,881 views 21 this week
no commentswrite comment
1 2 3 4 5
excellent!
x 3
add to favorites
launch autoscroll
font size
0
reset
how to read this tab
guitar tuner
Autoscroll
slow
fast
+/-
esc
set tempo
stop
Help us to improve Ultimate-Guitar.com Take our survey!
×
PLEASE

Music by U2 - Lyrics by Bono and The Edge

(LIVE VERSION FROM POPMART TOUR - 1997)

[Tune down your guitar 1/2 step - Capo II.]

1------------------------------------------------------------------|
2------------------------------------------------------------------|
3---5-5---5-5-5-5-5-5-------5-5-5-5-5-5---5-5-5-5-5-5----------5-5-|
4---5h7---7p5-7-5-5h7-------7p5-7-5-5h7---7p5-7-5-5h7--5----5--5h7-|
5--------------------------------------------------------7---7-----|
6------------------------------------------------------------------|

So you never knew love until you crossed the line of grace
And you never felt wanted till you had someone slap your face
So you never felt alive until you almost wasted away

[Use wah wah]

1----------------------------------------------------------------|
2-1--1--1--1--1--1-0--0--0--0--0--0-3--3--3--3--3--3-1--1--1--1--|
3--2--2--2--2--2----2--2--2--2--2----2--2--2--2--2----2--2--2--2-|
4----------------------------------------------------------------| x2
5----------------------------------------------------------------|
6----------------------------------------------------------------|

You had to win
You couldn't just pass
The smartest ass
At the top of the class
Your flying colours
Your family tree
And all your lessons in history

1--------------------0------------------------------0---|
2-------------------------------------------------------|
3---------2h4--5------------2---2h4---2-----------------|
4-------------------------------------------------------| x4
5---0-----------------------------------------0---------|
6-------------------------------------------------------|

Please, please, please get up off your knees
Please, please, please let me out

1------------------------------------------------------------------|
2------------------------------------------------------------------|
3---5-5---5-5-5-5-5-5-------5-5-5-5-5-5---5-5-5-5-5-5----------5-5-|
4---5h7---7p5-7-5-5h7-------7p5-7-5-5h7---7p5-7-5-5h7--5----5--5h7-|
5--------------------------------------------------------7---7-----|
6------------------------------------------------------------------|

So you never knew how low you'd stoop to make that call
And you never knew what was on the ground till they made you crawl
And you never knew that the Heaven you keep you stole

[Use wah wah]

1----------------------------------------------------------------|
2-1--1--1--1--1--1-0--0--0--0--0--0-3--3--3--3--3--3-1--1--1--1--|
3--2--2--2--2--2----2--2--2--2--2----2--2--2--2--2----2--2--2--2-|
4----------------------------------------------------------------| x2
5----------------------------------------------------------------|
6----------------------------------------------------------------|

Your catholic blues
Your convent shoes
Your stick on tattoos
Now they're making the news
Your holy war
Your northern star
Your sermon on the mount
From the boot of your car

1--------------------0------------------------------0-|
2-----------------------------------------------------|
3---------2--4--5------------2---2h4---2--------------|
4-----------------------------------------------------| x4
5---0-----------------------------------------0-------|
6-----------------------------------------------------|

Please, please, please get up off your knees
Please, please, please let me out

'cause love is big, you say is bigger than us
But love is not what you're thinking of

[Use wah wah]

1----------------------------------------------------------------|
2----------------------------------------------------------------|
3----------------------------------------------------------------|
4--x-x-x-x----7-5h7----5-5---5---5-5-7-----7-5h7---5-5---5-------|
5--x-x-x-x--0---------7-----7---7--------0-------7-----7---5-3h5-|
6--x-x-x-x-------------------------------------------------------|

September, streets capsizing, spilling over, down the drain
Shards of glass splinters like rain but you could only feel your own pain

October, talking, getting nowhere, November, December, remember
Are we just starting again?

1-----------------0----------0--------0--------0--0---|
2---------------------------------------3---3---------|
3---------2h4--5----2h4--5----2h4-5-------2---2--2--2-|
4-----------------------------------------------------|
5---0-------------------------------------------------|
6-----------------------------------------------------|

Please, please, please get up off your knees
Please

1-------8------8---------7-----7--------10------10---------8------8---|
2----10-----10--10----10----10--10---10------10----10---10-----10--10-|
3--9------9---------9-----9--------9-------9----------9------9--------| x2
4---------------------------------------------------------------------|
5---------------------------------------------------------------------|
6---------------------------------------------------------------------|

So love is big, bigger than us
But love is not what you're thinking of, what you're thinking of


1-----------------------12--------------------------12----|
2--10/13-13-15-15-13-15----13--10/13-13-15-15-13-15----13-|
3---------------------------------------------------------| x2
4---------------------------------------------------------|
5---------------------------------------------------------|
6---------------------------------------------------------|

1-----15--15--15--15--15--15--17--17--17--17--17------19--19--19--19--19----20--20--20--20--|
2--13--13--13--13--13--13--15--15--15--15--15--15-17--17--17--17--17--17-18--18--18--18--18-|
3-------------------------------------------------------------------------------------------|
4-------------------------------------------------------------------------------------------|
5-------------------------------------------------------------------------------------------|
6-------------------------------------------------------------------------------------------|

1-------8------8---------7-----7--------10------10---------8------8---|
2----10-----10--10----10----10--10---10------10----10---10-----10--10-|
3--9------9---------9-----9--------9-------9----------9------9--------| x3
4---------------------------------------------------------------------|
5---------------------------------------------------------------------|
6---------------------------------------------------------------------|

It's what lovers deal, it's what lovers steal
You know I've found it hard to receive

Don't you...

1--7-----7---------10-----10-----10-------8-----8------8-|
2----10----10---------10-----10-----10------10----10-----|
3-------9-----9----------9------9------9-------9-----9---|
4--------------------------------------------------------|
5--------------------------------------------------------|
6--------------------------------------------------------|

...my love         I could never           believe

1-----------------0----------0--------0--------0--0---|
2---------------------------------------3---3---------|
3---------2h4--5----2h4--5----2h4-5-------2---2--2--2-|
4-----------------------------------------------------|
5---0-------------------------------------------------|
6-----------------------------------------------------|

Please please  please, get up off your knees
Please please  please, get up off your knees  Pleeeeeease

zooman@exploit.it
Suggest correction
Give kudos to tab author, rate the tab!
1 2 3 4 5
comments
print report bad tab
guest
You may want to rate the tab now too:
select rating
Wanna post a correction for this tab? Suggest correction