Oops, an error
Loading. Please wait.

Pride In The Name Of Love Bass Tab

version 1
version 1

Whole song

by U2
22,526 views 33 this week
2 commentsread comments
1 2 3 4 5
x 5
add to favorites
launch autoscroll
font size
0
reset
guitar tuner
Autoscroll
slow
fast
+/-
esc
set tempo
stop
Help us to improve Ultimate-Guitar.com Take our survey!
×
U2 - "Pride(In the Name of Love)" - Bass Tab
    
[Intro]
G|-----------------------------------|
D|*---------------------------------*|
A|*-0-0-0-0-0-0-0-0-0-0-0-0-0-0-0-0-*| (x4)
E|-----------------------------------|
    1 e & a 2 e & a 3 e & a 4 e & a
    
[Verse & Chorus:]
G|-------------------------|-----------------------|
D|-------------------------|-----------------------|
A|-2-2-2-2-2-2-2-2-2-2-2-2-|-----------------------|
E|-------------------------|-0-0-0-0-0-0-0-0-0-0-0-|
   1 & 2 e & 3 & a 4 e & a   1 & 2 & a 3 e & a 4 &
    
G|-------------------------|---------------------|(this rythm is
D|-------------------------|---------------------| only approx.
A|-------------------------|---------------------| rhythm is always 
E|-5-5-5-5-5-5-5-5-5-5-5-5-|-2-2-2-2-2-2-2-2-2-2-| changing)
   1 & 2 e & a 3 & a 4 e &   1 & 2 & 3 e & a 4 &
    
[Solo]
G|---------------------|---------------------------|
D|---------------------|---------------------------|
A|-2-2-2-0-1-2-0-2---2-|-5-5-5-3-4-5-5-3-5---5-5-5-|
E|---------------------|---------------------------|
   1 & 2 & a 3 & a 4 &   1 & 2 & a 3 e & a 4 e & a
    
G|---------------------|-----------------------|
D|-----2-0-1-2-0-1-2-2-|-----2-0-1-2-2-0-1-2---|
A|---------------------|---------------------0-|
E|-0-0-----------------|-0-0-------------------|
   1 & 2 & a 3 & a 4 &   1 & 2 & a 3 e & a 4 &
Suggest correction
comments
print report bad tab
2 comments total.
-1 reply
Chestaufissen 112 Sep 15, 2005 12:00 AM

You Suck ASS! Johari!!

-1 reply
Chestaufissen 112 Sep 15, 2005 12:00 AM

Juss Kiddy-ng Main, no but seriously it wasn't a very good Tab.

guest
You may want to rate the tab now too:
select rating
Wanna post a correction for this tab? Suggest correction