Oops, an error
Loading. Please wait.

Pride In The Name Of Love Live bass

version 2
version 2

Whole song

by U2
6,970 views 3 this week
1 commentread comment
1 2 3 4 5
1 last vote to show rating
add to favorites
×
Save as Personal and add changes to this tab that will be seen only by you. Learn more ›
×
You can save this tab as Personal to edit and correct it or add notes. All changes will be seen only by you. Learn more »
launch autoscroll
font size
0
reset
guitar tuner
backing track
0:00
0:00
edit
Autoscroll
slow
fast
+/-
esc
set tempo
stop
Difficulty
intermediate
Tabbed By : rif raf
e-mail: 

Tuning: normal

intro
G|-------------------------------------------------------------------------|
D|-------------------------------------------------------------------------|
A|-------------------------------------------------------------------------|
E|-3-3-3-3-3-3-3-3-3-3-3-3-3-3-3-3-3-3-3-3-3-3-3-3-3-3-3-3-3-3-3-3-3-3-3-3-|

verse X4
G|-------------------------------------------------------------------------|
D|-------------------------------------------------------------------------|
A|-----------------5-5-5-5-5-5-5-5-----------------------------------------|
E|-5-5-5-5-5-5-5-5-----------------3-3-3-3-3-3-3-3--0-0-0-0-0-0-0-0--------|

chorus
G|-----------------------7------7-7-7-------12--------12-12-12-------------|
D|-----7-----7-7-7---------------------------------------------------------|
A|------------------5-5-----5-5-------10-10-----10-10----------------------|
E|-5-5---5-5---------------------------------------------------------------|

G|------9-------9-9-9------------------------------------------------------|
D|-------------------------------------------------------------------------|
A|-7-7-----7-7-------------------------------------------------------------|
E|-------------------------------------------------------------------------|

G|-----------------------7-------7-7-7--------12---------12-12-12----------|
D|-----7----7-7-7----------------------------------------------------------|
A|------------------5-5-----5-5--------10-10------10-10--------------------|
E|-5-5---5-5---------------------------------------------------------------|

G|------9------9-9-9-------------------------------------------------------|
D|-------------------------------------------------------------------------|
A|-7-7----7-7--------------------------------------------------------------|
E|-------------------------------------------------------------------------|

verse
G|-------------------------------------------------------------------------|
D|-------------------------------------------------------------------------|
A|------------------5-5-5-5-5-5-5-5----------------------------------------|
E|-5-5-5-5-5-5-5-5-------------------3-3-3-3-3-3-3-3--0-0-0-0-0-0-0-0------|

G|-------------------------------------------------------------------------|
D|-------------------------------------------------------------------------|
A|------------------5-5-5-5-5-5-5-5----------------------------------------|
E|-5-5-5-5-5-5-5-5-------------------3-3-3-3-3-3-3-3--0-0-0-0-0-0-0-0------|

chorus
G|-----------------------7------7-7-7--------12-------12-12-12-------------|
D|-----7-----7-7-7---------------------------------------------------------|
A|------------------5-5----5-5---------10-10----10-10----------------------|
E|-5-5---5-5---------------------------------------------------------------|

G|------9------9-9-9-------------------------------------------------------|
D|-------------------------------------------------------------------------|
A|-7-7----7-7--------------------------------------------------------------|
E|-------------------------------------------------------------------------|

G|-----------------------7------7-7-7--------12-------12-12-12-------------|
D|-----7-----7-7-7---------------------------------------------------------|
A|------------------5-5----5-5---------10-10----10-10----------------------|
E|-5-5---5-5---------------------------------------------------------------|

G|------9------9-9-9-------------------------------------------------------|
D|-------------------------------------------------------------------------|
A|-7-7----7-7--------------------------------------------------------------|
E|-------------------------------------------------------------------------|

solo X2
G|-------------------------------------------------------------------------|
D|-------------------------------------------------------------------------|
A|-------------------------------------------------------------------------|
E|-5-5-5-3-4-5-3-4-5---8-8-8-6-7-8-6-7-8---10-10-10-8-9-10-8-9-10----------|

G|-------------------------------------------------------------------------|
D|-------------------------------------------------------------------------|
A|-------------------------------------------------------------------------|
E|-10-10-10-8-9-10-8-9-10--------------------------------------------------|

  X4
G|-------------------------------------------------------------------------|
D|-------------------------------------------------------------------------|
A|------------------5-5-5-5-5-5-5-5--10-10-10-9-9-10-9-10-9----------------|
E|-5-5-5-5-5-5-5-5---------------------------------------------------------|

G|-------------------------------------------------------------------------|
D|-------------------------------------------------------------------------|
A|-7-7-7-7-7-7-7-7---------------------------------------------------------|
E|-------------------------------------------------------------------------|


chorus
G|-----------------------7------7-7-7-------12--------12-12-12-------------|
D|-----7-----7-7-7---------------------------------------------------------|
A|------------------5-5----5-5--------10-10-----10-10----------------------|
E|-5-5---5-5---------------------------------------------------------------|

G|------9-------9-9-9------------------------------------------------------|
D|-------------------------------------------------------------------------|
A|-7-7-----7-7-------------------------------------------------------------|
E|-------------------------------------------------------------------------|

G|----------------------7------7-7-7--------12-------12-12-12--------------|
D|-----7-----7-7-7---------------------------------------------------------|
A|-----------------5-5----5-5---------10-10----10-10-----------------------|
E|-5-5---5-5---------------------------------------------------------------|

G|------9------9-9-9-------------------------------------------------------|
D|-------------------------------------------------------------------------|
A|-7-7----7-7--------------------------------------------------------------|
E|-------------------------------------------------------------------------|

outro
G|-------------------------------------------------------------------------|
D|-------------------------------------------------------------------------|
A|------------------5-5-5-5-5-5-5-5--10-10-10-10-10-10-10-10---------------|
E|-5-5-5-5-5-5-5-5---------------------------------------------------------|

G|-------------------------------------------------------------------------|
D|-------------------------------------------------------------------------|
A|-7-7-7-7-7-7-7-7--------------------5-5-5-5-5-5-5-5----------------------|
E|------------------5-5-5-5-5-5-5-5----------------------------------------|

G|-------------------------------------------------------------------------|
D|-------------------------------------------------------------------------|
A|-10-10-10-10-10-10-10-10--7-7-7-7-7-7-7-7--------------------------------|
E|-------------------------------------------5-----------------------------|

            
            
Suggest correction
Creating personal tab
Creating personal tab
You can edit any tab online and save it as your Personal.

You can edit, replace or remove any tab part or add personal notes – all changes will be seen only by you.

Personal tabs can be accessed anytime from any device, even offline.
Learn more »
Give kudos to tab author, rate the tab!
1 2 3 4 5
comments
print report bad tab
1 comment total.
0 reply
Natebassist458 176 Dec 07, 2013 10:47 PM

well done. I find the live version of pride to be better than the album version. :)

guest
Wanna post a correction for this tab? Suggest correction