Oops, an error
Loading. Please wait.

Silver And Gold bass

by U2
5,113 views 9 this week
no commentswrite comment
1 2 3 4 5
x 3
add to favorites
×
Save as Personal and add changes to this tab that will be seen only by you. Learn more ›
×
You can save this tab as Personal to edit and correct it or add notes. All changes will be seen only by you. Learn more »
launch autoscroll
font size
0
reset
guitar tuner
edit
Autoscroll
slow
fast
+/-
esc
set tempo
stop
Song: Silver and Gold
Band: U2
Bassist: Adam Clayton
Transcripted by Angelus Rho Needreary III (Eric Needreary)

NOTE:

5== -> Let ring

Intro

G||----------|
D||-REST-----|
A||----------|
E||----------|

Begin at "in this tin can town, tin can town
  \Repeat this till____| \"The warden says:|"The exodus sold".|
G||--------------------|||-----------------|------------------|
D||º------------------º|||-----------------|------------------|
A||º-7----7----7----7-º|||-----------------|-0================|
E||--------------------|||-0===============|------------------|

 \"If you wanna a way out||
G|-----------------------||
D|-----------------------||
A|-----------------------||
E|-2=====================||

1st Verse
  \"Silver and Gold"..."I'm Someone_|
G||-----------------------------||
D||------5-7--7-----------------||
A||-7--7--------5--5-5-7--------||
E||----------------------5-2-5--||

Then you you play more two times.

Chorus
  \"Captains and Kings,|in the ship's hold|They came to collect|
G||--------------------|------------------|--------------------|
D||--------------------|------------------|--------------------|
A||--------------------|0=================|--------------------|
E||-0==================|------------------|2===================|

2nd Verse
 \"Silver and Gold"..."Bright and shiny things_|
G||-----------------------------||
D||------5-7--7-----------------||\Here you play softly.
A||-7--7--------5--5-5-7--------||
E||----------------------5-2-5--||

 \"The temperature"..."(set them free)_|
G||-----------------------------||
D||------5-7--7-----------------||
A||-7--7--------5--5-5-7--------||
E||----------------------5-2-5--||

Then you play two times again

Chorus

  \"A prize fighter in |a corner is told|Hit where it hurts|
G||--------------------|----------------|------------------|
D||--------------------|----------------|------------------|
A||--------------------|0===============|------------------|
E||-0==================|----------------|2=================|

Then you go back to the main riff.
Suggest correction
Creating personal tab
Creating personal tab
You can edit any tab online and save it as your Personal.

You can edit, replace or remove any tab part or add personal notes – all changes will be seen only by you.

Personal tabs can be accessed anytime from any device, even offline.
Learn more »
Give kudos to tab author, rate the tab!
1 2 3 4 5
comments
print report bad tab
guest
You may want to rate the tab now too:
select rating
Wanna post a correction for this tab? Suggest correction