Oops, an error
Loading. Please wait.

Sleep Like A Baby Tonight intro tab

version 1
version 1

Intro

Whole song

by U2
565 views 9 this week
no commentswrite comment
1 2 3 4 5
x 5
add to favorites
×
Save as Personal and add changes to this tab that will be seen only by you. Learn more ›
×
You can save this tab as Personal to edit and correct it or add notes. All changes will be seen only by you. Learn more »
launch autoscroll
font size
0
reset
how to read this tab
guitar tuner
edit
Autoscroll
slow
fast
+/-
esc
set tempo
stop
Author
Difficulty
-------------------------------------------------------------------------------
                             SLEEP LIKE A BABY TONIGHT - U2
-------------------------------------------------------------------------------
Tabbed by: Ricky Choaders
E-mail: hmu @Tpreviti at twitter.com
Tuning: Standard
A song by the great Bono

So this is just the intro to the song. Give it some distortion and reverb or chorus or 
any cool effect personally it sounded cool with any of them. And I put in the chords that 
the riffs are built around cuz im a helpful person. Also add slides between 
the notes. Oh yeah and it works best when you finger-pick it. 
Give it five fuckin stars its spot on
 
Part 1
         Fm         A          A         E          
e|---------------------------------------------------------------------------|
B|---------------------------------------------------------------------------|
G|---------------------------------------------------------------------------|
D|-------4-4--------7-7--------7-7------2-2----------------------------------|Play 3x
A|---------------------------------------------------------------------------|
E|---2-2-2-2----5-5-5-5----5-5-5-5--0-0-0-0----------------------------------|

Part 2
 (play part one then this little bit)
         D Db       B B
e|---------------------------------------------------------------------------|
B|---------------------------------------------------------------------------|
G|-------7-7--------4-4------------------------------------------------------|
D|---------------------------------------------------------------------------|Play at end
A|---5-5-5-5----2-2-2-2------------------------------------------------------|of part one
E|---------------------------------------------------------------------------|

 After this Bono starts singing and it repeats like this for good part of the song.
 Bam that's the intro.

            
            
Suggest correction
Creating personal tab
Creating personal tab
You can edit any tab online and save it as your Personal.

You can edit, replace or remove any tab part or add personal notes – all changes will be seen only by you.

Personal tabs can be accessed anytime from any device, even offline.
Learn more »
comments
print report bad tab
guest
You may want to rate the tab now too:
select rating
Wanna post a correction for this tab? Suggest correction