Oops, an error
Loading. Please wait.

Sometimes You Cant Make It On Your Own Bass Tab

version 1
version 1

Whole song

Interactive

by U2
6,687 views 6 this week
1 commentread comment
1 2 3 4 5
accurate
x 11
add to favorites
launch autoscroll
font size
0
reset
guitar tuner
Tab Pro tools
  • play this tab
  • loop segment
  • change instrument
  • show fretboard
  • metronome
Autoscroll
slow
fast
+/-
esc
set tempo
stop
Contributor
Intro: 0:01 - 0:40
  A          G          F#   D        A
G------------------------------------------------|
D------------------------------------------------| X2
A----------------------------5-------------------|
E-5-------7/-3-------5/-2---------0-2-5-------7/-|

1st Verse: 0:41 - 1:00
  (You don't have to put....You don't have to always...)
  A            A            G            G
G-------------------------------------------------------|
D-----------------------------2------------2------------|
A---7-----4------7-----4---------4--2---------4--0-2-4--|
E-5----7-----0-5----7-----0-3----------0-3--------------|

  (Let me take some of........You.......tonight)
  F#           D              A            A
G-------------------------------------------------------|
D---2-------2--0-2--------------------------------------|
A------2--2---------4--2-0-4------7-----4------7-----4--|
E-2---------------------------0-5----7-----0-5----7-----|

Pre-Chorus: 1:01 - 1:20
               (Listen to me now..................I need to let...)
  D                               A
G------------------------------------------------------------------|
D------------------------------------------------------------------|
A-5-5-5-5-5-5-5-5-5-5-5-5-5-5-5-5----------------------------------|
E---------------------------------5-5-5-5-5-5-5-5/\5-5-5-5-5-5-5-5-|

               (you don't have to..alone.....................)
  F#                              D
G--------------------------------------------------------------|
D--------------------------------------------------------------|
A---------------------------------5-5-5-5-5-5-5-5--5-5---------|
E-2-2-2-2-2-2-2-2-2-2-2-2-2-2-2-2-----------------------7--7-5-|

Chorus: 1:21 - 1:40
  (You when I look...And its you when I don't...)
  (Sometimes you can't make it on your own)
  F#                E               D
G-------------------------------------------------------------------|
D-------------------------------------------------------------------| X2
A-----------------/-7-7-7-7-7-7-7-7-5-5-5-5-5-5-5-5-5-5-5-5-5-5-5-5-|
E-2-2-2-2-2-2-2-2---------------------------------------------------|

2nd Verse: 1:41 - 2:20
  A            A            G            G
G-----------------------------------------------------|
D---2------------2------------2------------2----------|
A-0----2--2-0--0----2--2-0-------2--2-0-------2--2-0--|
E---------------------------3------------3------------|

  F#           D            A            A
G-----------------------------------------------------|
D---2----------0-2------------2------------2----------|
A------2--2-0-------2--2-0--0----2--2-0--0----2--2-0--|
E-2---------------------------------------------------|

(Pre-Chorus) 2:21 - 2:40

(Chorus) 2:41 - 3:00

Bridge: 3:01 - 3:18
  F    C       D
G--------------------------------------------------------------------------|
D--------------------------------------------------------------------------|
A------3--3-3-/5-------------3--3-3-/5-----------------3--3-3-/5-----------|
E-1-11------------------1-11----------------------1-11---------------------|

Interlude: 3:19 - 3:57
  A               A               F#              F#
G-----------------------------------------------------------------|
D-----------------------------------------------------------------|
A-----------------------------------------------------------------|
E-5-5-5-5-5-5-5-5-5-5-5-5-5-5-5-5-2-2-2-2-2-2-2-2-2-2-2-2-2-2-2-2-|

  D               E               A               A
G-----------------------------------------------------------------|
D-----------------------------------------------------------------|
A-5-5-5-5-5-5-5-5-7-7-7-7-7-7-7-7---------------------------------|
E---------------------------------5-5-5-5-5-5-5-5-5-5-5-5-5-5-5-5-|

  D               D               A               A
G-----------------------------------------------------------------|
D-----------------------------------------------------------------|
A-5-5-5-5-5-5-5-5-5-5-5-5-5-5-5-5---------------------------------|
E---------------------------------5-5-5-5-5-5-5-5-5-5-5-5-5-5-5-5-|

  F#              F#              D
G--------------------------------------------------------------|
D--------------------------------------------------------------|
A---------------------------------5-5-5-5-5-5-5-5--5-5---------|
E-2-2-2-2-2-2-2-2-2-2-2-2-2-2-2-2-----------------------7--7-5-|

(Chorus) 3:58 - 4:39

Outro: 4:39 - 4:59
 A            A            G            G
G-----------------------------------------------------|
D---2------------2------------2------------2----------|
A-0----2--2-0--0----2--2-0-------2--2-0-------2--2-0--|
E---------------------------3------------3------------|

  F#           D            A            A
G-----------------------------------------------------|
D---2----------0-2------------2------------2----------|
A------2--2-0-------2--2-0--0----2--2-0--0----2--2-0--|
E-2---------------------------------------------------|

*This is 100%! Rate, please.
comments
print report bad tab
1 comment total.
0 reply
Bakes3224 wrote on March 9 2014, 06:38 pm

this is totally wrong btw

I want to post or [tab]
guest
You may want to rate the tab now too:
select rating
Please do not post tabs as comments. Select "correction" instead!