Oops, an error
Loading. Please wait.

Sometimes You Cant Make It On Your Own Bass Tab

version 2
version 2

Whole song

Interactive

by U2
1,189 views 1 this week
no commentswrite comment
1 2 3 4 5
please rate
add to favorites
launch autoscroll
font size
0
reset
guitar tuner
Tab Pro tools
  • play this tab
  • loop segment
  • change instrument
  • show fretboard
  • metronome
Autoscroll
slow
fast
+/-
esc
set tempo
stop
Contributor
Difficulty
novice
-------------------------------------------------------
U2 - - Sometimes you can’t Make It On Your Own
-------------------------------------------------------

This is by ear so it may not be perfect but its close

Drop D tuning (it may be standard I know, but drop d makes it easier)

Part A
|---------------------------------------------------------------------|
|---------------------------------------------------------------------|
|-0------------2---------------0---------------------------------0----|
|-----------------5---------------4-------------0------------2-4------|

Part B
|------------------------------------------------------------|
|------------------------------------------------------------|
|-0-0-2-2-0--0-2-2-0---0-2-2-0--0-2-2-0---0-2-2-0----0-2-2-0-|
|--------------------5------------------4----------0---------|

--------------------|
--------------------|
-0-0-2-2-0--0-2-2-0-|
--------------------|

Part C
|-----------------------------------------------------|
|-----------------------------------------------------|
|-----------------------------------------------------|
|-4----4----4--4----4----4--2----2----2--2----2----2--|

------------------------------------------------------|
------------------------------------------------------|
---------------------------0----0----0--0-0-2-2-0-----|
-4----4----4--4----4----4-----------------------------|

Part D
|-----------------------------------------------------------------|
|-----------------------------------------------------------------|
|-----------------------------------------------------------------|
|-4-4-4-4-4-4-4-4-2-2-2-2-2-2-2-2-0-0-0-0-0-0-0-0-0-0-0-0-0-0-0-0-|

Part E
|------------------------------------------------|
|-3-------------3-------------3------------------|
|----3--5----------3--0----------3--5------------|
|------------------------------------------------|

Part F
|---------------------------------------------------------|
|---------------------------------------------------------|
|-0----0----0---0----0----0-------------------------------|
|-----------------------------4----4----4---4----4----4---|

---------------------------------------------------------|
---------------------------------------------------------|
-0----0----0-----------------0----0----0---0----0----0---|
---------------2----2----2-------------------------------|

Order:

Ax2
Bx1
Cx1
Dx2
Bx2
Cx1
Dx2
Ex1
Fx2
Dx4
Ending similar to B
comments
We did not receive enough feedback on this tab! Please rate:
print report bad tab
1 2 3 4 5
I want to post or [tab]
guest
You may want to rate the tab now too:
select rating
Please do not post tabs as comments. Select "correction" instead!