Oops, an error
Loading. Please wait.
We have Chord Pro version of Song For Someone.
It's the closest thing you can get to the original song and it has interactive parts. Check out the tab »
×
by U2
6,369 views 24 this week
1 commentread comment
1 2 3 4 5
x 11
add to favorites
×
Save as Personal and add changes to this tab that will be seen only by you. Learn more ›
×
You can save this tab as Personal to edit and correct it or add notes. All changes will be seen only by you. Learn more »
launch autoscroll
font size
0
reset
how to read this tab
guitar tuner
edit
Autoscroll
slow
fast
+/-
esc
set tempo
stop
Please, support my little cover band :
https://www.facebook.com/groupeneo

Merci !


---------------------------------------------------------------------------------------------------------
                       U2 - Song for someone (Album : Songs of innocence) - T. 106
---------------------------------------------------------------------------------------------------------



| |--[ INTRO ]------------|-------------------------|-------------------------|-----------------------| |
|*|-----------------------|-------------------------|-------------------------|-----------------------|*|
| |-----------------------|-------------------------|-------------------------|-----------------------| |
| |---4--------4----------|----4--------4-----------|----4---------4----------|---6--------6----------| |
|*|------7--------7-----7-|-------7--------7-----7--|-------4---------4-----4-|------6--------6-----6-|*|
| |-0-------0--------0----|-0--------0--------0-----|-2---------2--------2----|-4-------4--------4----| |


---------------------------------------------------------------------------------------------------------

|-------------------------|-------------------------|-------------------------|-------------------------|
|-------------------------|-------------------------|-------------------------|-------------------------|
|-------------------------|-------------------------|-------------------------|-------------------------| x 4
|---4---------4-----------|----4--------4-----------|----4---------4----------|---6---------6-----------|
|------7---------7-----7--|-------7--------7-----7--|-------4---------4-----4-|------6---------6-----6--|
|-0-------0---------0-----|-0--------0--------0-----|-2---------2--------2----|-4-------4---------4-----|

E                         E                         F#                         G#m
You've  got  a  face  not spoiled  by  beauty,      I have got some scars from where I've been,     . . .

E                         E                         F#                         G#m
you've got eyes, that can see right through me,     you're  not  afraid  of anything they've seen,  I was

E                         E                         F#                         G#m
to-old,   that  I  would  feel . . .           no - thing . . .    the  first  time . . .        I  don't

E                         E                         F#                         G#m
kno-ow, how  these  cuts  heal . . .       but  in  you . . .  I've  found  a  rhyme . . .  if there is a


---------------------------------------------------------------------------------------------------------

|-------------2-----2 ~ --|-------------2-----2 ~ --|-------------2-----2 ~ --|-------------------------|
|-------------------------|-------------------------|-------------------------|-------------4-----4 ~ --|
|-4 ~ -----4-----4--------|-4 ~ -----4-----4--------|-3 ~ -----3-----3--------|-1 ~ -----1-----1--------| x 4
|-------------------------|-------------------------|-------------------------|-------------------------|
|-------------------------|-------------------------|-------------------------|-------------------------|
|-------------------------|-------------------------|-------------------------|-------------------------|

light, you  can't  always see,       and there is a world,     we can't always be,       if  there  is  a

dark,   that we shouldn't doubt, and  there  is  a  light, don't  let  it  go  out,      AND  THIS  IS  A
 
SON    -   O   -   O   -  ONG .  .  .           A   SO - O - ONG,      FOR SOMEONE .  .  .      THIS IS A 

SON    -   O   -   O   -  ONG .  .  .           A   SO - O - ONG,      FOR SOMEONE .  .  .        .  .  .   


|-0 ~ --------------------|
|-0 ~ --------------------|
|-1 ~ --------------------|
|-2 ~ --------------------|
|-2 ~ --------------------|
|-0 ~ --------------------|


---------------------------------------------------------------------------------------------------------

|-------------------------|-------------------------|-------------------------|-------------------------|
|-------------------------|-------------------------|-------------------------|-------------------------|
|-------------------------|-------------------------|-------------------------|-------------------------| x 4
|---4---------4-----------|----4--------4-----------|----4---------4----------|---6---------6-----------|
|------7---------7-----7--|-------7--------7-----7--|-------4---------4-----4-|------6---------6-----6--|
|-0-------0---------0-----|-0--------0--------0-----|-2---------2--------2----|-4-------4---------4-----|

E                         E                         F#                         G#m
you let me in, to a con - versation .  .  .         a   conversation    only   we  could  make    .  .  .

E                         E                         F#                         G#m
you  break  and  enter my ima - gination,           whatever's in there,  it's yours  to  take,    I  was 

E                         E                         F#                         G#m
to - old    .  .  .    I  feel .  .  .         no - o - thing,     the  first  time,            you  were

E                         E                         F#                         G#m
slo - o - ow .  .  .  to  heal,          but  this, could   be,          the   night,    if  there  is  a


---------------------------------------------------------------------------------------------------------

|-------------------------|-------------------------|-------------------------|-------------------------|
|----12----12----12----12-|----12----12----12----12-|----11----11----11----11-|----12----12----11----9--|
|-11----11----11----11----|-11----11----11----11----|-11----11----11----11----|-11----11----11----11----| x 4
|-------------------------|-------------------------|-------------------------|-------------------------|
|-------------------------|-------------------------|-------------------------|-------------------------|
|-------------------------|-------------------------|-------------------------|-------------------------|

light, you  can't  always see,       and there is a world,     we can't always be,       if  there  is  a

dark,     within  and  whithout ,    and there is a light,     don't let it go out,      AND  THIS  IS  A

SON    -   O   -   O   -  ONG .  .  .           A   SO - O - ONG,      FOR SOMEONE .  .  .      THIS IS A 

SON    -   O   -   O   -  ONG .  .  . THIS  IS  A   SO - O - ONG,      FOR SOMEONE .  .  .       Yeah !..


----------------------------------------------[  S O L O  ]----------------------------------------------

| |11^9----9--11----------|-11^9----9--11---------9-|-11^9----9--11-----------|-11^9----11 ~ ---------| |
|*|-po--12--------9--12 ~ |--po--12--------9--12----|--po--12--------9-- 12 ~ |--po--12-------12--9 ~ |*|
| |-----------------------|-------------------------|-------------------------|-----------------------| |
| |-----------------------|-------------------------|-------------------------|-----------------------| |
|*|-----------------------|-------------------------|-------------------------|-----------------------|*|
| |-----------------------|-------------------------|-------------------------|-----------------------| |

                                                                                              and  I'm  a


---------------------------------------------------------------------------------------------------------

| |-----------2-----2 ~ --|-------------2-----2 ~ --|-------------2-----2 ~ --|-----------------------| |
|*|-----------------------|-------------------------|-------------------------|-------------4-----4 ~ |*|
| |4 ~ ----4-----4--------|-4 ~ -----4-----4--------|-3 ~ -----3-----3--------|-1 ~ -----1-----1------| |
| |-----------------------|-------------------------|-------------------------|-----------------------| |
|*|-----------------------|-------------------------|-------------------------|-----------------------|*|
| |-----------------------|-------------------------|-------------------------|-----------------------| |

lon    -    on     -      o-ong  way,     from  you  hill .  .  .    of  ca-valry .  .  .     and  I'm  a

lo     -    ong .  .  .   way,       from  where  I  was,  where  I  need  to  be,       if  there  is  a


--------------------------------------------[   O U T R O  ]---------------------------------------------

|-------------------------|-------------------------|-------------------------|-------------------------|
|-------------------------|-------------------------|-------------------------|-------------------------|
|-------------------------|-------------------------|-------------------------|-------------------------| 
|---4---------4-----------|----4--------4-----------|----4---------4----------|---6---------6-----------|
|------7---------7-----7--|-------7--------7-----7--|-------4---------4-----4-|------6---------6-----6--|
|-0-------0---------0-----|-0--------0--------0-----|-2---------2--------2----|-4-------4---------4-----|

light,   you can't always see,        and there is a world,    we can't always be,       if  there  is  a

|-------------------------|-------------------------|-------------------------|-------------------------|
|-------------------------|-------------------------|-------------------------|-------------------------|
|-------------------------|-------------------------|-------------------------|-------------------------| 
|---4---------4-----------|----4--------4-----------|----4---------4----------|-------------------------|
|------7---------7-----7--|-------7--------7-----7--|-------4---------4-----4-|-------------------------|
|-0-------0---------0-----|-0--------0--------0-----|-2---------2--------2----|-4 ~ --------------------|

kiss, I  stole  from  your mouth, and  there  is  a  light,   don't let it  go out .  .  . 

            
            
Suggest correction
Creating personal tab
Creating personal tab
You can edit any tab online and save it as your Personal.

You can edit, replace or remove any tab part or add personal notes – all changes will be seen only by you.

Personal tabs can be accessed anytime from any device, even offline.
Learn more »
comments
print report bad tab
1 comment total.
-2 reply
LikeASong 62 Sep 29, 2014 03:35 AM

didn't like this contribution

guest
You may want to rate the tab now too:
select rating
Wanna post a correction for this tab? Suggest correction