Oops, an error
Loading. Please wait.

Stand Up Comedy Bass Tab

version 1
version 1

Whole song

Interactive

by U2
2,637 views 3 this week
no commentswrite comment
1 2 3 4 5
excellent!
x 2
add to favorites
launch autoscroll
font size
0
reset
guitar tuner
Tab Pro tools
  • play this tab
  • loop segment
  • change instrument
  • show fretboard
  • metronome
Autoscroll
slow
fast
+/-
esc
set tempo
stop
Contributor
---------------------------------------------|
Song: Stand Up Comedy	                     |
Artist: U2                                   |
Album: No Line on the Horizon                |
---------------------------------------------|
Tabbed by: Kyle Lords (mystic2kyle@gmail.com)|
---------------------------------------------|

Note: The sections have notes above them, but all sections are tabbed directly beneath.

In this song, there are a few points where 16th notes dominate the measure. In those
cases, you're welcome to play straight 16th notes or synchopate the line a little bit.
I tabbed the synchopation as I heard it on the album. Again, you can play it as you 
feel it, though. That's what music's all about anyways.

Intro/Pre-verse 1: 
	
G:|----------------|----------------|----------------|----------------|
D:|--------------24|-------4-2----24|--------------24|-------4-2----24|
A:|------------24--|-----------224--|------------24--|-----------224--|
E:|2-2-2-22-2------|2-2-2-----------|2-2-2-22-2------|2-2-2-2---------|
   1 + 2 + 3 + 4 +  1 + 2 + 3 + 4 +  1 + 2 + 3 + 4 +  1 + 2 + 3 + 4 + 

Verse 1:

G:|----------------|----------------|----------------|----------------|
D:|---44-2----22-4-|---44-2---------|----------------|----------------|
A:|----------------|----------------|5-555-4-44444-44|----------------|
E:|2---------------|2---------757---|----------------|5-555-5/75757-7-|
   1 + 2 + 3 + 4 +  1 + 2 + 3 + 4 +  1 + 2 + 3 + 4 +  1 + 2 + 3 + 4 +  

|----------------|----------------|----------------|----------------|
|---44-2----22-4-|---44-2---------|----------------|----------------|
|----------------|----------------|5-555-4-44444---|----------------|
|2---------------|2---------757---|----------------|5-555-4-44444---|
 1 + 2 + 3 + 4 +  1 + 2 + 3 + 4 +  1 + 2 + 3 + 4 +  1 + 2 + 3 + 4 + 

Pre-verse 2:

G:|----------------|----------------|
D:|--------------24|-------4-2----24|
A:|------------24--|-----------224--|
E:|2-2-2-22-2------|2-2-2-----------|
   1 + 2 + 3 + 4 +  1 + 2 + 3 + 4 +  


Verse 2:

G:|----------------|----------------|----------------|----------------|
D:|---44-2----22-4-|---44-2---------|----------------|----------------|
A:|----------------|----------------|5-555-4-44444-44|----------------|
E:|2---------------|2---------757---|----------------|5-555-5/75757-5-|
   1 + 2 + 3 + 4 +  1 + 2 + 3 + 4 +  1 + 2 + 3 + 4 +  1 + 2 + 3 + 4 +  

|----------------|----------------|----------------|----------------|
|---44-2----22-4-|---44-2---------|----------------|----------------|
|----------------|----------------|5-555-4-44444-44|----------------|
|2---------------|2---------757---|----------------|5-555-4-44444---|
 1 + 2 + 3 + 4 +  1 + 2 + 3 + 4 +  1 + 2 + 3 + 4 +  1 + 2 + 3 + 4 + 
 
Chorus 1:

G:|----------------|----------------|----------------|----------------|
D:|----------------|----------------|----------------|----------------|
A:|----------------|----------------|----------------|----------------|
E:|55555-5555555-55|77777-7/99999-99|55555-5555555-55|77777-7/99999-99|
   1 + 2 + 3 + 4 +  1 + 2 + 3 + 4 +  1 + 2 + 3 + 4 +  1 + 2 + 3 + 4 +  

|----------------|----------------|----------------|----------------|
|----------------|----------------|----------------|----------------|
|----------------|----------------|----------------|----------------|
|55555-5555555-55|77777-7/99999-99|7777777777777-77|6666666655554444|
 1 + 2 + 3 + 4 +  1 + 2 + 3 + 4 +  1 + 2 + 3 + 4 +  1 + 2 + 3 + 4 + 

Pre-verse 3:

G:|----------------|----------------|----------------|----------------|
D:|--------------24|-------4-2----24|--------------24|-------4-2----24|
A:|------------24--|-----------224--|------------24--|-----------224--|
E:|2-2-2-22-2------|2-2-2-----------|2-2-2-22-2------|2-2-2-2---------|
   1 + 2 + 3 + 4 +  1 + 2 + 3 + 4 +  1 + 2 + 3 + 4 +  1 + 2 + 3 + 4 + 

Verse 3:

G:|----------------|----------------|----------------|----------------|
D:|---44-2----22-4-|---44-2---------|----------------|----------------|
A:|----------------|----------------|5-555-4-44444-44|----------------|
E:|2---------------|2---------757---|----------------|5-555-5/75757-5-|
   1 + 2 + 3 + 4 +  1 + 2 + 3 + 4 +  1 + 2 + 3 + 4 +  1 + 2 + 3 + 4 +  

|----------------|----------------|----------------|----------------|
|---44-2----22-4-|---44-2---------|----------------|----------------|
|----------------|----------------|5-555-4-44444-44|----------------|
|2---------------|2---------757---|----------------|5-555-4-44444-44|
 1 + 2 + 3 + 4 +  1 + 2 + 3 + 4 +  1 + 2 + 3 + 4 +  1 + 2 + 3 + 4 + 

Chorus 2:

G:|----------------|----------------|----------------|----------------|
D:|----------------|----------------|----------------|----------------|
A:|----------------|----------------|----------------|----------------|
E:|55555-5555555-55|77777-7/99999-99|55555-5555555-55|77777-7/99999-99|
   1 + 2 + 3 + 4 +  1 + 2 + 3 + 4 +  1 + 2 + 3 + 4 +  1 + 2 + 3 + 4 +  

|----------------|----------------|----------------|----------------|
|----------------|----------------|----------------|----------------|
|----------------|----------------|----------------|----------------|
|55555-5555555-55|77777-7/99999-99|77777-7777777-77|6666666655554444|
 1 + 2 + 3 + 4 +  1 + 2 + 3 + 4 +  1 + 2 + 3 + 4 +  1 + 2 + 3 + 4 + 

Pre-verse 4:

G:|----------------|----------------|----------------|----------------|
D:|--------------24|-------4-2----24|--------------24|-------4-2----24|
A:|------------24--|-----------224--|------------24--|-----------224--|
E:|2-2-2-22-2------|2-2-2-----------|2-2-2-22-2------|2-2-2-2---------|
   1 + 2 + 3 + 4 +  1 + 2 + 3 + 4 +  1 + 2 + 3 + 4 +  1 + 2 + 3 + 4 + 

Solo:

G:|----------------|----------------|----------------|----------------|
D:|----------------|----------------|----------------|----------------|
A:|----------------|----------------|----------------|----------------|
E:|77777-7777777-77|33333-3/55555555|77777-7777777-77|33333-3/55555-55|
   1 + 2 + 3 + 4 +  1 + 2 + 3 + 4 +  1 + 2 + 3 + 4 +  1 + 2 + 3 + 4 +  

|----------------|----------------|----------------|----------------|
|----------------|----------------|----------------|----------------|
|----------------|----------------|----------------|999999999999999\|
|77777-7777777-77|55555-5555555555|44444-444444444/|----------------|
 1 + 2 + 3 + 4 +  1 + 2 + 3 + 4 +  1 + 2 + 3 + 4 +  1 + 2 + 3 + 4 +  

Bridge:

G:|----------------|----------------|----------------|----------------|
D:|---44-2----22-4-|---44-2---------|---44-2----22-4-|---44-2---------|
A:|----------------|----------------|----------------|----------------|
E:|2---------------|2---------75775-|2---------------|2---------757-5-|
   1 + 2 + 3 + 4 +  1 + 2 + 3 + 4 +  1 + 2 + 3 + 4 +  1 + 2 + 3 + 4 +  

Chorus 3:

G:|----------------|----------------|----------------|----------------|
D:|----------------|----------------|----------------|----------------|
A:|----------------|----------------|----------------|----------------|
E:|55555-5555555-55|77777-7/99999999|55555-5555555-55|77777-7/99999-99|
   1 + 2 + 3 + 4 +  1 + 2 + 3 + 4 +  1 + 2 + 3 + 4 +  1 + 2 + 3 + 4 +  

|----------------|----------------|----------------|----------------|
|----------------|----------------|----------------|----------------|
|----------------|----------------|----------------|----------------|
|77777-7777777777|6666666655554444|77777-7777777-77|666666665\------|
 1 + 2 + 3 + 4 +  1 + 2 + 3 + 4 +  1 + 2 + 3 + 4 +  1 + 2 + 3 + 4 + 

Outro:

G:|----------------|----------------|----------------|----------------|
D:|--------------24|-------4-2----24|--------------24|-------4-2----24|
A:|------------24--|-----------224--|------------24--|-----------224--|
E:|2-2-2-22-2------|2-2-2-----------|2-2-2-22-2------|2-2-2--2--------|
   1 + 2 + 3 + 4 +  1 + 2 + 3 + 4 +  1 + 2 + 3 + 4 +  1 + 2 + 3 + 4 + 

|----------------|----------------|----------------|----------------|
|--------------24|-------4-2----24|--------------24|-------4-2----24|
|------------24--|-----------224--|------------24--|-----------224--|
|2-2-2-22-2------|2-2-2-----------|2-2-2-22-2------|2-2-2--2--------|
 1 + 2 + 3 + 4 +  1 + 2 + 3 + 4 +  1 + 2 + 3 + 4 +  1 + 2 + 3 + 4 + 

|----------------|
|----------------|
|----------------|
|2---------------|  (Hold out as long as you like or match to song)
 1 + 2 + 3 + 4 +  

Additional info for how to play this song (changes in the song, etc.) 
can be obtained by e-mailing me at the address provided above.

Questions and comments also welcome. Rock on.
comments
We did not receive enough feedback on this tab! Please rate:
print report bad tab
1 2 3 4 5
I want to post or [tab]
guest
You may want to rate the tab now too:
select rating
Please do not post tabs as comments. Select "correction" instead!