Oops, an error
Loading. Please wait.

Stand Up Comedy Tab

version 1
version 1

Whole song

Interactive

by U2
15,110 views 1 this week
7 commentsread comments
1 2 3 4 5
accurate
x 6
add to favorites
launch autoscroll
font size
0
reset
how to read this tab
guitar tuner
Tab Pro tools
  • play this tab
  • loop segment
  • change instrument
  • show fretboard
  • metronome
×
Best way to learn
"Stand Up Comedy"
Autoscroll
slow
fast
+/-
esc
set tempo
stop
Contributor
U2 - Stand Up Comedy (No Line On The Horizon, 2009)

-----------------
===== intro =====
-----------------

F#  (riff 1)
Love love love love love… 

Love love love love love…

riff 1:
e--------------------|-----------------------|
B--------------------|-----------------------|
G--------------------|-----------------------|
D-----4----4-----2h4-|-----4---4-2-------2h4-|
A-------------2h4----|-------------2-2h4-----|
E-2-2----2-----------|-2-2---2---------------|


-----------------
===== verse =====
-----------------

riff 2:
e-----------------|-----------------|
B-----------------|-----------------|
G-----------------|-----------------|
D-----4-x-----4-x-|-----4-x-----4-x-|
A-----------------|-----------------|
E-2-2-----2-2-----|-2-2-----2-2-----|

          F# (riff 2)
 got to stand up and take a step 

You and I have been asleep for hours 
          D
I got to stand up 
A                                 B        
The wire is stretched in between our two towers 
F# (riff 2)
Stand up in this dizzy world 

Where a lovesick eye can steal the view 
           D    A                    E/G#
I’m gonna fall down if I can’t stand up 
          F#
For your love 


F#  (riff 1)
Love love love love love… 


F# (riff 2)
Stand up, this is comedy 

The DNA lottery may have left you smart 
             D           A                B
But can you stand up to beauty, dictator of the heart 
        F# (riff 2)
I can stand up for hope, faith, love 

But while I’m getting over certainty 
D               A                                 E/G#
Stop helping God across the road like a little old lady 


------------------
===== chorus =====
------------------

riff 3:
e--------12----12---|--------------------|
B-12/14----14----14-|-14-12-----12----12-|
G-------------------|-------13-----13----|   3x
D-------------------|--------------------|
A-------------------|--------------------|
E-------------------|--------------------|

e-12p11-------12p11------|-6-6-6-6-\5-5-5-5-|
B-------12-12------12-12-|-6-6-6-6-\5-5-5-5-|
G------------------------|-7-7-7-7-\6-6-6-6-|
D------------------------|-8-8-8-8-\7-7-7-7-|
A------------------------|------------------|
E------------------------|------------------|

A       B   C#m
  Oh   oh
A               B   C#m
Out from under your beds 
B              
C’mon ye people
Bb        A        F# 
Stand up for your love 


F#  (riff 1)
Love love love love love… 


-----------------
===== verse =====
-----------------

         F# (riff 2) 
I gotta stand up to ego but my ego’s not really the enemy 
             D                       A
It’s like a small child crossing an eight lane highway 
            B
On a voyage of discovery 

riff 4:
e--------------9--------|--------------9--------|
B---11---12-----12---11-|---11---12-----12---11-|
G-11---11---11----11----|-11---11---11----11----|
D-----------------------|-----------------------|
A-----------------------|-----------------------|
E-----------------------|-----------------------|

F# (riff 4) 
Stand up to rock stars, Napolean is in high heels
D              A                         E/G# 
Josephine, be careful of small men with big ideas 


------------------
===== chorus =====
------------------


A (riff 3) B   C#m
  Oh       oh
A               B   C#m
Out from under your beds 
B              
C’mon ye people
Bb        A        F# 
Stand up for your love 


F# (riff 1)
Love love love love love… 


------------------
===== bridge =====
------------------

   B            G      A         B            G       A        
e------------|----------------|------------|----------------|
B-10/12--12--|-/10-8---7h8p7--|-10/12--12--|-/10-8---7h8p7--|
G------------|----------------|------------|----------------|
D------------|----------------|------------|----------------|
A------------|----------------|------------|----------------|
E------------|----------------|------------|----------------|


riff 5:
e-----------------|-----------|---------------|------------------|
B-10/12-10-7------|-5/7-5-----|---------------|------------------|
G-----------------|-------7-6-|-6b7b6-4h6p4---|-5/7--6-7-9--9/11-|
D-----------------|-----------|---------------|------------------|
A-----------------|-----------|---------------|------------------|
E-----------------|-----------|---------------|------------------|

(riff 5)  B      G
         God is love
     F#         G        A         F# 
And love is evolution’s very best day


------------------
===== chorus =====
------------------

 A (riff 3)   B     C#m
Soul rockin’ people moving on
 A            B     C#m
Soul rockin’ people on and on 
B
C’mon ye people 
       Bb       A
We’re made of stars 
B
C’mon ye people 
Bb             A        
Stand up then sit down for your love 


-----------------
===== outro =====
-----------------

F# (riff 1)
Love love love love love… 

Love love love love love…

Ooooh Ooh

Ooooh Ooh 

comments
print report bad tab
7 comments total. Showing first comments.
0 reply
Fitzpatrick wrote on March 12 2009, 11:00 am

A lot of it isn't correct.

0 reply
jeroenvr wrote on March 12 2009, 02:20 pm

like what exactly? cause im pretty sure about most of it

0 reply
Fitzpatrick wrote on March 15 2009, 11:54 am

Some of The riffs, the solo, End of the verse, chords...
By the way this is according to my opinion and I'm pretty sure my tab is accurate

I want to post or [tab]
guest
You may want to rate the tab now too:
select rating
Please do not post tabs as comments. Select "correction" instead!