Oops, an error
Loading. Please wait.

Stand Up Comedy Tab

version 2
version 2

Whole song

Interactive

by U2
7,161 views 1 this week
5 commentsread comments
1 2 3 4 5
accurate
x 9
add to favorites
launch autoscroll
font size
0
reset
how to read this tab
guitar tuner
Autoscroll
slow
fast
+/-
esc
set tempo
stop
Help us to improve Ultimate-Guitar.com Take our survey!
×
Author
U2
Stand Up Comedy
No Line On The Horizon (2009)

Ok, this is a pretty easy song to play. It only took a couple of minutes to figure it 
During the solo if it says ''10fb10'', that means you  bend up to the 12th fret and 
it back to the 10th.


Intro Riff:
|--------------------------------------------|
|--------------------------------------------|
|--------------------------------------------|
|-----4----4-------2h4-----4---4-2-------2h4-|
|--------------2h4-------------------2h4-----|
|-2-2----2---2---------2-2---------2---------|


Verse (Part 1)
|---------------------------------------|
|---------------------------------------|
|---------------------------------------|
|-----4-x------4-x-x-----4--------4-----|
|-------x--------x-x-------x--------x-x-|
|-2-2---x--2-2---x-x-2-2---x--2-2---x-x-|


Verse (Part 2)
  D        A                B
|-2--2-2-2-0--0-0-0-0-0-0-0-2--2-2-2-|
|-3--3-3-3-2--2-2-2-2-2-2-2-4--4-4-4-|
|-2--2-2-2-2--2-2-2-2-2-2-2-4--4-4-4-|
|-0--0-0-0-2--2-2-2-2-2-2-2-4--4-4-4-|
|----------0--0-0-0-0-0-0-0-2--2-2-2-|
|------------------------------------|


Chorus
|-9--9-7------7-----7-9--9-9-7-----7------12-11----12-11----------|
|---------7-9---9-7------------7-9---9-7--------12-------12-11-10-|
|-----------------------------------------------------------------|
|-----------------------------------------------------------------|
|-----------------------------------------------------------------|
|-----------------------------------------------------------------|


Solo (This is played with a slide)
|-----------------------------------------------------------|
|-10/12-10-10\8-------------10/12-12-12/10-10-8-------------|
|-----------------11/12\11-------------------------11/12\11-|
|-----------------------------------------------------------|
|-----------------------------------------------------------|
|-----------------------------------------------------------|

|------------------------------------------------|
|-10/12\10---------------------------------------|
|----------11-11-9------------------------/9-10/-|
|------------------12-12/13\12-10-9-12-12--------|
|------------------------------------------------|
|------------------------------------------------|


After Solo
|---------------|
|---------------|
|---------------|
|--/11----/11---|
|---------------|
|---------------|

Before Final Chorus
  A   B   Db
|-0---2---4--|
|-2---4---6--|
|-2---4---6--|
|-2---4---6--|
|-0---2---4--|
|------------|
Suggest correction
What's this?
You can suggest a correction to this tab. Community and Mods will review your correction and vote to approve or reject it.
comments
print report bad tab
5 comments total. Showing first comments.
+1 reply
nemesis101 50 wrote on March 12 2009, 11:04 am

A very accurate tab well done.

0 reply
jeroenvr 335 wrote on March 12 2009, 02:33 pm

I don't see why you're rating my tab with 1 star when yours is less accurate and less complete. Chords aren't correct sometimes man (D-Dbm-B... DBm is certainly an A), although however the fingerpicking seems quite right to me.

0 reply
Garageking1479 584 wrote on March 15 2009, 08:51 pm

the other tab is better

guest
You may want to rate the tab now too:
select rating
Please do not post tabs as comments. Select "correction" instead!