Oops, an error
Loading. Please wait.

Stay Faraway So Close Bass Tab

version 1
version 1

Whole song

Interactive

by U2
4,082 views 9 this week
no commentswrite comment
1 2 3 4 5
please rate
add to favorites
launch autoscroll
font size
0
reset
guitar tuner
Autoscroll
slow
fast
+/-
esc
set tempo
stop
Help us to improve Ultimate-Guitar.com Take our survey!
×
Author
Intro, Outro, and Verse

G|-------------------------------------------| Repeat as needed
D|1-1-----1-3-3-----1---------0-1-1----------| (Omit third-to-last
A|------1-------1-3---------1----------------| note when heading into bridge)
E|----4---------------4-4-4------------------|

Bridge 1
G|------0-3-------0-3---------0---------1-------0-3-------0-3----------------|
D|3-3-3-----3-3-3-----1-1-1-3---1-1-1-3---3-3-3-----3-3-3-----1-1-----1-3-3--|
A|----------------------------------------------------------------1-3--------|
E|---------------------------------------------------------------------------|

G|---------------------------------------------------------------------------|
D|----1---------0-1-1--------------------------------------------------------|
A|1-3---------1--------------------------------------------------------------|
E|------4-4-4----------------------------------------------------------------|

Repeat Verse

Bridge 2 + 3
G|------0-3-------0-3-0-0-0-3-5-0-0-0-3-5-1-1-1-3-5-1-1-1-3-5----------------|
D|3-3-3-----3-3-3------------------------------------------------------------|
A|------------------------------------------------------------2-2-2-2-2-2-2-2|
E|---------------------------------------------------------------------------|

G|---------------------------------------------------------------------------|
D|---------------------------------------------------------------------------|
A|2-2-2-2-2-2-2-2------------------------------------------------------------|
E|---------------------------------------------------------------------------|

Chorus 1
G|------0-3-------0-3---------0---------1-------0-3-------0-3---------0------|
D|3-3-3-----3-3-3-----1-1-1-3---1-1-1-3---3-3-3-----3-3-3-----1-1-1-3---1-1-1|
A|---------------------------------------------------------------------------|
E|---------------------------------------------------------------------------|

G|--1-------0-3-------0-3----------------------------------------------------|
D|3---3-3-3-----3-3-3-----1-1-----1-3-3-----1---------0-1-1------------------|
A|----------------------------1-3-------1-3---------1------------------------|
E|--------------------------------------------4-4-4--------------------------|

Repeat Verse

Repeat Bridge 2 + 3

Chorus 2
G|------0-3-------0-3---------0---------1-------0-3-------0-3---------0------|
D|3-3-3-----3-3-3-----1-1-1-3---1-1-1-3---3-3-3-----3-3-3-----1-1-1-3---1-1-1|
A|---------------------------------------------------------------------------|
E|---------------------------------------------------------------------------|

G|--1-1-1-1-3-5-0-0-0-3-5-1-1-1-3-5-0-0-0-3-5-------0-3-------0-3-------0-3--|
D|3-------------------------------------------3-3-3-----3-3-3-----3-3-3-----1|
A|---------------------------------------------------------------------------|
E|---------------------------------------------------------------------------|

G|---------------------------------------------------------------------------|
D|1-----1-3-3-----1---------0-1-1--------------------------------------------|
A|--1-3-------1-3---------1--------------------------------------------------|
E|------------------4-4-4----------------------------------------------------|

Outro

| /  slide up
| \  slide down
| h  hammer-on
| p  pull-off
| ~  vibrato
| +  harmonic
| x  Mute note
===============================================================================
Suggest correction
Give kudos to tab author, rate the tab!
1 2 3 4 5
comments
print report bad tab
guest
You may want to rate the tab now too:
select rating
Wanna post a correction for this tab? Suggest correction