Oops, an error
Loading. Please wait.

Stuck In A Moment You Cant Get Out Of Tab

version 1
version 1

Whole song

by U2
41,045 views 9 this week
2 commentsread comments
1 2 3 4 5
excellent!
x 10
add to favorites
launch autoscroll
font size
0
reset
how to read this tab
guitar tuner
Tab Pro tools
  • play this tab
  • loop segment
  • change instrument
  • show fretboard
  • metronome
×
Best way to learn
"Stuck In A Moment You Cant Get Out Of"
Autoscroll
slow
fast
+/-
esc
set tempo
stop
Contributor
=========================================================== 
U2 - All That You Can't Leave Behind 
Stuck in a Moment You Can't Get Out Of 
Transcribed by GibsonGirl 
=========================================================== 
This is a very fun song to play - lots of nice little fills, 
particularly the bridge.  Not sure if this is 100% correct, 
but it's very close.
h = hammer on 
p = pull off 
/ = slide (up fretboard) 
\ = slide (down fretboard)
 
STANDARD TUNING 
Intro - (0:00) 
e|---------------------------------------------------------------| 
B|---------------------------------------------------------------| 
G|--9------------------------9-----------------------------------| 
D|--9------11---9---9---9h11----9----7---6-----------------------| 
A|--7------------------------------------------------------------| 
E|---------------------------------------------------------------|
 
Verse 1 - (0:13) 
(I'm not afraid of anything in this world...) 
e|---------------------------------------------------------------| 
B|---------------------------------------------------------------| 
G|----9----9----8----9--9---------9-9---9-------------9---8---8-9| 
D|---9----------------------7-6---------9---9/11---9--9-----9----| 
A|---------------------------------------------------------------| 
E|---------------------------------------------------------------|
 
e|------------------------| 
B|------------------------| 
G|---8-----------9--9-----| 
D|--9-9---7--6---9--9-----| 
A|------------------------| 
E|------------------------|
 
Bridge - (O:37) 
(I never thought you were a fool...) 
e|---------------------------------------------------------------| 
B|---------------------------------------------------------------| 
G|--------13-----14-13------16------14-13-14-13------------13----| 
D|--12/14----14---------14------14--------------14---12/14----14-| 
A|---------------------------------------------------------------| 
E|---------------------------------------------------------------|
 
e|---------------------------------------------------------------| 
B|---------------------------------------------------------------| 
G|--14-13-----16------14-13-14-13-------------13----14-13----16--| 
D|--------14------14--------------14---12/14-----14-------14-----| 
A|---------------------------------------------------------------| 
E|---------------------------------------------------------------|
 
e|---------------------------------------------------------------| 
B|---------------------------------------------------------------| 
G|-----14-13-14-13----------13-13h14--13--13\11--11\-9--9--------| 
D|--14--------------14------------------------------------9------| 
A|---------------------------------------------------------------| 
E|---------------------------------------------------------------|
 
Chorus - (1:01) 
(You've got to get yourself together...) 
e|---------------------------------------------------------------| 
B|---------------------------------------------------------------| 
G|------9-----------------------------9--9--9--------------------| 
D|--6-------9/11---9---6-9--9/11--9---11-11-9----6--9--6-9--9/11-| 
A|---------------------------------------------------------------| 
E|---------------------------------------------------------------|
 
e|---------------------------------------------------------------| 
B|---------------------------------------------------------------| 
G|----------8---13-14-13---------------------9----9-9-9-9--------| 
D|--11--9-------13----13--9---9/11-11\9--9----9----9-9-9-9-------| 
A|---------------------------------------7-----------------------| 
E|---------------------------------------------------------------|
 
Verse 2 - (1:32) 
(I will not forsake the colours that you bring...) 
Note: piano plays after first note of the verse: come back in when Bono sings "I am still enchanted 
by the light...) 
e|-------p-------------------------------------------------------| 
B|-------i-------------------------------------------------------| 
G|-------a-----9---------------------8---9---------------9-------| 
D|--6----n---9----9/11---9----6--6/9---9-----9--11-11-9----------| 
A|--7----o-------------------------------------------------------| 
E|---------------------------------------------------------------|
 
Bridge - (1:56) 
(And you are such a fool to worry like...) 
e|---------------------------------------------------------------| 
B|---------------------------------------------------------------| 
G|--------13-----14-13-----16-----14-13-14-13------------15----16| 
D|--12/14----14--------14-----14--------------14---14/16----16---| 
A|---------------------------------------------------------------| 
E|---------------------------------------------------------------|
 
e|---------------------------------------------------------------| 
B|---------------------------------------------------------------| 
G|--15----16-----14-13-13h14-13------------13----14-13----16-----| 
D|-----16-----16----------------14---12/14----14-------14----14--| 
A|---------------------------------------------------------------| 
E|---------------------------------------------------------------|
 
e|---------------------------------------------------------------| 
B|---------------------------------------------------------------| 
G|--14-13-13h14--13--------------13-----13h14--13-----13--11-9-11| 
D|------------------14----12/14-----14------------14-------------| 
A|---------------------------------------------------------------| 
E|---------------------------------------------------------------|
 
Chorus - (2:20) 
(You've got to get yourself together...) 
e|---------------------------------------------------------------| 
B|---------------------------------------------------------------| 
G|------9-9-------------9---8-8-8-9--9--9--9---------------------| 
D|--6--------6---9/11-------9-9-9-9--11-11-9---6--9---6--9--9/11-| 
A|---------------------------------------------------------------| 
E|---------------------------------------------------------------|
 
e|-----------------------------------| 
B|-----------------------------------| 
G|----------8---13-14-13-------------| 
D|--11---9------13----13---9-11-11-9-| 
A|-----------------------------------| 
E|-----------------------------------|
 
Middle 8 - (2:44) 
(I was unconscious half asleep...) 
e|--------0---------------0-------------------------------0------| 
B|------2---2---------------2---------0-------0---------2---2----| 
G|----2-------2--------2------------1---1---1---1-----2-------2--| 
D|--4-----------4----2--------2---2-------2---------4-----------4| 
A|---------------------------------------------------------------| 
E|---------------------------------------------------------------|
 
e|------------5-------------------10------------------7----------| 
B|----------5---5--------------10----10-------------7---7--------| 
G|--------6-------6---------11----------11--------8-------8------| 
D|--6---7-----------7----12----------------12---9-----------9----| 
A|---------------------------------------------------------------| 
E|---------------------------------------------------------------|
 
Chorus - (3:09) 
(You've got to get yourself together...) 
e|---------------------------------------------------------------| 
B|---------------------------------------------------------------| 
G|------------------------9---9p6--------------------------------| 
D|--6---9----9h11---9--9--9-------9---9/11---9----6---9--6-9-----| 
A|---------------------------------------------------------------| 
E|---------------------------------------------------------------|
 
e|----------------------------------------------------| 
B|----------------------------------------------------| 
G|--------9------------------9p6--------------9-------| 
D|--9/11--11---9--9--9/11---------9---9--7--6-------6-| 
A|----------------------------------------------------| 
E|----------------------------------------------------|
 
Outro - (3:33) 
(And if the night runs over...) 
e|---------------------------------------------------------------| 
B|---------------------------------------------------------------| 
G|---------13------14-13------16------14-13-13h14-13-----------13| 
D|--12/14------14---------14------14-----------------14--12/14---| 
A|---------------------------------------------------------------| 
E|---------------------------------------------------------------|
 
e|---------------------------------------------------------------| 
B|---------------------------------------------------------------| 
G|------14-13-----16-----14-13-13h14-13-----------9--9--9------9-| 
D|--14--------14-----14-----------------14----9---11-11-11-11--9-| 
A|--------------------------------------------7------------------| 
E|---------------------------------------------------------------|
 
e|---------------------------------------------------------------| 
B|---------------------------------------------------------------| 
G|----9---------------------------------13-----14-13-----16------| 
D|--9-9----9--9----7-----6---6----12/14----14--------14-----14---| 
A|---------------------------------------------------------------| 
E|---------------------------------------------------------------|
 
e|---------------------------------------------------------------| 
B|---------------------------------------------------------------| 
G|--14-13-13h14-13-----------13----14-13----16----14-13-13h14-13-| 
D|-----------------14--12/14----14-------14----14----------------| 
A|---------------------------------------------------------------| 
E|---------------------------------------------------------------|
 
e|---------------------------------------------------------------| 
B|---------------------------------------------------------------| 
G|------------13----14-13----16-----14-13-13h14-13------------13-| 
D|--14--12/14----14------14-----14-----------------14---12/14----| 
A|---------------------------------------------------------------| 
E|---------------------------------------------------------------|
 
e|-----------------------------------------------------| 
B|-----------------------------------------------------| 
G|-----14-13----14-------13-13-13-14-13---9...---------| 
D|--14-------14----------14-14-14-14-13---9...---------| 
A|----------------------------------------7...---------| 
E|-----------------------------------------------------| 
comments
print report bad tab
2 comments total.
0 reply
KurdtKobain wrote on March 13 2002, 12:00 am

Fuck Monkey

0 reply
timmy3125 wrote on November 7 2005, 03:24 pm

Very nice tab, kickass song

I want to post or [tab]
guest
You may want to rate the tab now too:
select rating
Please do not post tabs as comments. Select "correction" instead!