Oops, an error
Loading. Please wait.

Sunday Bloody Sunday Tab

version 2
by U2
25,214 views 6 this week
1 commentread comment
1 2 3 4 5
accurate
x 8
add to favorites
launch autoscroll
font size
0
reset
how to read this tab
guitar tuner
Tab Pro tools
  • play this tab
  • loop segment
  • change instrument
  • show fretboard
  • metronome
×
Best way to learn
"Sunday Bloody Sunday"
Autoscroll
slow
fast
+/-
esc
set tempo
stop
Contributor
-------------------------------------------------------------------------------
                             Sunday Bloody Sunday - U2
-------------------------------------------------------------------------------

Tabbed by: Quynh Lam
Email:rickmanic@fsmail.net

Tuning: 1/2 step down to Eb

Verse 1
Main Riff
   Bm           D             G
e|-------2------------2-------------0-----------0-------------------------|
B|----3-----3------3-----3-------3-----3-----3-----3----------------------|
G|-4------------2-------------0-----------0-------------------------------|
D|------------------------------------------------------------------------|
A|------------------------------------------------------------------------|
E|------------------------------------------------------------------------|

How long? How long must we sing......
   Bm       G
e|--3---3---0---0---------------------------------------------------------|
B|--2---2---3---3---------------------------------------------------------|
G|--4---4---0---0---------------------------------------------------------|
D|------------------------------------------------------------------------|
A|------------------------------------------------------------------------|
E|------------------------------------------------------------------------|

Cos tonight....
[Play twice] for chorus
Chorus
   Bm                D                 G
e|------------------------------------------------------------------------|
B|-7--7--7--7--x--x--7--7--7--7--x--x--3--3--3--3--x--x--3--3--3--3-------| 
G|-7--7--7--7--x--x--7--7--7--7--x--x--4--4--4--4--x--x--4--4--4--4-------| 
D|-9--9--9--9--x--x--7--7--7--7--x--x--5--5--5--5--x--x--5--5--5--4-------|
A|------------------------------------------------------------------------|
E|------------------------------------------------------------------------|

Verse 2
You play chorus once then go to main riff
then carry on playing through when Edge and Bono sing "sunday bloody sunday"

Harmonics (Natural Harmonics)
e|------------------------------------------------------------------------|
B|---------------7--------------------------------------------------------|
G|--------5--5-------7----------------------------------------------------|
D|-----5------------------------------------------------------------------|
A|--5---------------------------------------------------------------------|
E|------------------------------------------------------------------------|


Solo
e|--12--12--10--10--12--12--10--10-----------------------------------------|
B|--0---0---0---0---0---0---0---0---12--12--10--10--12--12--10--10---------|
G|----------------------------------0---0---0---0---0---0---0---0----------|
D|-------------------------------------------------------------------------|
A|-------------------------------------------------------------------------|
E|-------------------------------------------------------------------------|

e|--12--12--10--10--12--12--10--10-----------------------------------------|
B|--0---0---0---0---0---0---0---0---12--12--10--10--12--12--10--10---------|
G|----------------------------------0---0---0---0---0---0---0---0----------|
D|-------------------------------------------------------------------------|
A|-------------------------------------------------------------------------|
E|-------------------------------------------------------------------------|

e|-------------------------------------------------------------------------|
B|--10-h-12--10--8--8--7--7--5--5--3h5--5--3--3--2--3--2--0--0--0--3--2--3-|
G|--0----0---0---0--0--0--0--0--0--0-0--0--0--0--0--0--0--0--0--0--0--0--0-|
D|-------------------------------------------------------------------------|
A|-------------------------------------------------------------------------|
E|-------------------------------------------------------------------------|

e|-------------------------------------------------------------------------|
B|--5--7--7--8--8--10--10--15--15--14--10--12--12--------------------------|
G|--0--0--0--0--0--0---0---0---0---0---0---0---0---------------------------|
D|-------------------------------------------------------------------------|
A|-------------------------------------------------------------------------|
E|-------------------------------------------------------------------------|


   Wipe your tears away....
e|--x--x--x--x-x-x--xxx----------------------------------------------------|
B|--x--x--x--x-x-x--xxx----------------------------------------------------|
G|--x--x--x--x-x-x--xxx----------------------------------------------------|
D|--x--x--x--x-x-x--xxx----------------------------------------------------|
A|--x--x--x--x-x-x--xxx----------------------------------------------------|
E|--x--x--x--x-x-x--xxx----------------------------------------------------|


| /  slide up
| \  slide down
| h  hammer-on
| p  pull-off
| ~  vibrato
| +  harmonic
| x  Mute note

This song is about how war tears us a part and the horrors people can't see.

===============================================================================
comments
print report bad tab
1 comment total.
0 reply
natto wrote on February 23 2003, 12:00 am

e|------------------------------------
B|-----1-------1-------2-4-2---2-4-2--
G|---2---2---2---2--------------------
D|-3-------1--------------------------
A|------------------4--------4--------
E|------------------------------------

I want to post or [tab]
guest
You may want to rate the tab now too:
select rating
Please do not post tabs as comments. Select "correction" instead!