Oops, an error
Loading. Please wait.

Sunday Bloody Sunday Tab

version 3
by U2
54,225 views 90 this week
3 commentsread comments
1 2 3 4 5
x 10
add to favorites
launch autoscroll
font size
0
reset
how to read this tab
guitar tuner
Autoscroll
slow
fast
+/-
esc
set tempo
stop
Help us to improve Ultimate-Guitar.com Take our survey!
×
****************************************************************************

Sunday, Bloody Sunday :: U2

The song starts with drums...
In the "WAR" version the song starts with drums and electric violin...

e------2-------2-------0-------0-----|
B----3---3---3---3---3---3---3---3---|
G--4-------2-------0-------0-------0-|
D------------------------------------|
A------------------------------------|
E------------------------------------|


e------2-------2-------0-------0-----|
B----3---3---3---3---3---3---3---3---|
G--4-------2-------0-------0-------0-|
D------------------------------------|
A------------------------------------|
E------------------------------------|

...mmm, mmmm, mmm, mmmm...
e------2-------2-------0-------0-----|
B----3---3---3---3---3---3---3---3---|
G--4-------2-------0-------0-------0-|
D------------------------------------|
A------------------------------------|
E------------------------------------|


...i can't belive the news today...
e------2-------2-------0-------0-----|
B----3---3---3---3---3---3---3---3---|
G--4-------2-------0-------0-------0-|
D------------------------------------|
A------------------------------------|
E------------------------------------|

ooh, i can't close my eyes and make it go away...
e------2-------2-------0-------0-----|
B----3---3---3---3---3---3---3---3---|
G--4-------2-------0-------0-------0-|
D------------------------------------|
A------------------------------------|
E------------------------------------|

how long, how long must we sing this song, how long, how long...
e----2-------0-------2------------|
B----3-------3-------3-----5------|
G----4-------0-------4-----4------|
D--------------------------2------|
A---------------------------------|
E---------------------------------|

cause tonight, we can be as one tonight...
e---7---10-----------------|
B---7---10-----------------|
G---7---11---12----14---12-|
D---9---12---12----14---12-|
A---9---12---10----12---10-|
E--------------------------|

... broken bottles under childrens feet...
e---7---10-----------------|
B---7---10-----------------|
G---7---11---12----14---12-|
D---9---12---12----14---12-|
A---9---12---10----12---10-|
E--------------------------|


Bodies strewn across the dead end street
e---7---10-----------------|
B---7---10-----------------|
G---7---11---12----14---12-|
D---9---12---12----14---12-|
A---9---12---10----12---10-|
E--------------------------|

But I won't heed the battle call
e------2-------2-------0-------0-----|
B----3---3---3---3---3---3---3---3---|
G--4-------2-------0-------0-------0-|
D------------------------------------|
A------------------------------------|
E------------------------------------|


It puts my back up puts my back up against the wall
e------2-------2-------0-------0-----|
B----3---3---3---3---3---3---3---3---|
G--4-------2-------0-------0-------0-|
D------------------------------------|
A------------------------------------|
E------------------------------------|


Sunday, Bloody Sunday
e---7---10-----------------|
B---7---10-----------------|
G---7---11---12----14---12-|
D---9---12---12----14---12-|
A---9---12---10----12---10-|
E--------------------------|

Sunday, Bloody Sunday
e---7---10-----------------|
B---7---10-----------------|
G---7---11---12----14---12-|
D---9---12---12----14---12-|
A---9---12---10----12---10-|
E--------------------------|

e----------------------|
B-----------8---7------|
G-----7--7---------7---|
D---7------------------|
A----------------------|
E----------------------|


Sunday, Bloody Sunday
e----------------------|
B-----------8---7------|
G-----7--7---------7---|
D---7------------------|
A----------------------|
E----------------------|

Allright, lets go!
e---7---10-----------------|
B---7---10-----------------|
G---7---11---12----14---12-|
D---9---12---12----14---12-|
A---9---12---10----12---10-|
E--------------------------|


And the battle's just begun
e---7---10-----------------|
B---7---10-----------------|
G---7---11---12----14---12-|
D---9---12---12----14---12-|
A---9---12---10----12---10-|
E--------------------------|

There's many lost, but tell me who has won
e---7---10-----------------|
B---7---10-----------------|
G---7---11---12----14---12-|
D---9---12---12----14---12-|
A---9---12---10----12---10-|
E--------------------------|

The trench is dug within our hearts
e------2-------2-------0-------0-----|
B----3---3---3---3---3---3---3---3---|
G--4-------2-------0-------0-------0-|
D------------------------------------|
A------------------------------------|
E------------------------------------|

And mothers, children, brothers, sisters torn apart
e------2-------2-------0-------0-----|
B----3---3---3---3---3---3---3---3---|
G--4-------2-------0-------0-------0-|
D------------------------------------|
A------------------------------------|
E------------------------------------|


Sunday, Bloody Sunday
e---7---10-----------------|
B---7---10-----------------|
G---7---11---12----14---12-|
D---9---12---12----14---12-|
A---9---12---10----12---10-|
E--------------------------|


Sunday, Bloody Sunday
e---7---10-----------------|
B---7---10-----------------|
G---7---11---12----14---12-|
D---9---12---12----14---12-|
A---9---12---10----12---10-|
E--------------------------|

How long, how long must we sing this song? how long? how long...
e----2-------0-------2------------|
B----3-------3-------3-----5------|
G----4-------0-------4-----4------|
D--------------------------2------|
A---------------------------------|
E---------------------------------|


cause tonight...we can be as one tonight...tonight... tonight...
e---7---10-----------------|
B---7---10-----------------|
G---7---11---12----14---12-|
D---9---12---12----14---12-|
A---9---12---10----12---10-|
E--------------------------|


Sunday, Bloody Sunday
Sunday, Bloody Sunday

Allright, lets go!
"SOLO"
-12-12-12-10-10---12-12-12-10-10------------------------------------|
--0--0--0--0--0----0--0--0--0--0----12-12-12-10-10---12-12-12-10-10-|
-------------------------------------0--0--0--0--0----0--0--0--0--0-|
--------------------------------------------------------------------|
--------------------------------------------------------------------|
--------------------------------------------------------------------|  REPEAT

SOLO CONTINUE
--------------------------------------------------------|
-10-10-10--8--8--8--7--7--7--5--5--5--3--3--5--3--2--0--|
--0--0--0--0--0--0--0--0--0-----------------------------|
--------------------------------------------------------|
--------------------------------------------------------|
--------------------------------------------------------|

SOLO CONTINUE
--------------------------------------------------10-10--9--------------|
---0-2-3-2-3-5-3-5-7-5-7-8-7-8-10-8-10-12-10-12------------10-12-12-----|
-2----------------------------------------------------------------------|
------------------------------------------------------------------------|
------------------------------------------------------------------------|
------------------------------------------------------------------------|


Wipe the tears from your eyes
e---X-------X-------X-------X-------X-------X------|
B---X-------X-------X-------X-------X-------X------|
G---X-------X-------X-------X-------X-------X------|
D---X-------X-------X-------X-------X-------X------|
A---X-------X-------X-------X-------X-------X------|
E---X-------X-------X-------X-------X-------X------|

Wipe your tears away
e---X-------X-------X-------X-------X-------X------|
B---X-------X-------X-------X-------X-------X------|
G---X-------X-------X-------X-------X-------X------|
D---X-------X-------X-------X-------X-------X------|
A---X-------X-------X-------X-------X-------X------|
E---X-------X-------X-------X-------X-------X------|


Oh, wipe your tears away
e---X-------X-------X-------X-------X-------X------|
B---X-------X-------X-------X-------X-------X------|
G---X-------X-------X-------X-------X-------X------|
D---X-------X-------X-------X-------X-------X------|
A---X-------X-------X-------X-------X-------X------|
E---X-------X-------X-------X-------X-------X------|


Oh, wipe your tears away
e---X-------X-------X-------X-------X-------X------|
B---X-------X-------X-------X-------X-------X------|
G---X-------X-------X-------X-------X-------X------|
D---X-------X-------X-------X-------X-------X------|
A---X-------X-------X-------X-------X-------X------|
E---X-------X-------X-------X-------X-------X------|


Oh, wipe your bloodshot eyes
e---X-------X-------X-------X-------X-------X------|
B---X-------X-------X-------X-------X-------X------|
G---X-------X-------X-------X-------X-------X------|
D---X-------X-------X-------X-------X-------X------|
A---X-------X-------X-------X-------X-------X------|
E---X-------X-------X-------X-------X-------X------|

Sunday, Bloody Sunday
e----------------------|
B-----------8---7------|
G-----7--7---------7---|
D---7------------------|
A----------------------|
E----------------------|


Sunday, Bloody Sunday
e----------------------|
B-----------8---7------|
G-----7--7---------7---|
D---7------------------|
A----------------------|
E----------------------|

And it's true we are immune
e------2-------2-------0-------0-----|
B----3---3---3---3---3---3---3---3---|
G--4-------2-------0-------0-------0-|
D------------------------------------|
A------------------------------------|
E------------------------------------|


When fact is fiction and TV reality
e------2-------2-------0-------0-----|
B----3---3---3---3---3---3---3---3---|
G--4-------2-------0-------0-------0-|
D------------------------------------|
A------------------------------------|
E------------------------------------|


And today the millions cry
e------2-------2-------0-------0-----|
B----3---3---3---3---3---3---3---3---|
G--4-------2-------0-------0-------0-|
D------------------------------------|
A------------------------------------|
E------------------------------------|


We eat and drink while tomorrow they die
e------2-------2-------0-------0-----|
B----3---3---3---3---3---3---3---3---|
G--4-------2-------0-------0-------0-|
D------------------------------------|
A------------------------------------|
E------------------------------------|


Sunday, Bloody Sunday
e---7---10-----------------|
B---7---10-----------------|
G---7---11---12----14---12-|
D---9---12---12----14---12-|
A---9---12---10----12---10-|
E--------------------------|


Sunday, Bloody Sunday
e---7---10-----------------|
B---7---10-----------------|
G---7---11---12----14---12-|
D---9---12---12----14---12-|
A---9---12---10----12---10-|
E--------------------------|


The real battle just begun
e---7---10-----------------|
B---7---10-----------------|
G---7---11---12----14---12-|
D---9---12---12----14---12-|
A---9---12---10----12---10-|
E--------------------------|


To claim the victory Jesus won, On...
e---7---10-----------------|
B---7---10-----------------|
G---7---11---12----14---12-|
D---9---12---12----14---12-|
A---9---12---10----12---10-|
E--------------------------|

Sunday Bloody Sunday
e------2-------2-------0-------0-----|
B----3---3---3---3---3---3---3---3---|
G--4-------2-------0-------0-------0-|
D------------------------------------|
A------------------------------------|
E------------------------------------|


Sunday Bloody Sunday...
e------2-------2-------0-------0-----|
B----3---3---3---3---3---3---3---3---|
G--4-------2-------0-------0-------0-|
D------------------------------------|
A------------------------------------|
E------------------------------------|

e------2-|
B----3---|
G--4-----|
D--------|
A--------|
E--------|

Vetle Vik Gundersen
Suggest correction
comments
print report bad tab
3 comments total.
0 reply
josephde 131 Mar 30, 2005 12:00 AM

It's a half step down...

0 reply
X Alkaline 3 60 Apr 25, 2005 12:00 AM

good tab for a good song.

0 reply
sebbe_sjoblom 10 Jan 04, 2006 10:05 AM

nice tab

guest
You may want to rate the tab now too:
select rating
Wanna post a correction for this tab? Suggest correction